Oops, an error
Loading. Please wait.

Monster bass

version 1
version 1

Whole song

10,851 views 6 this week
no commentswrite comment
1 2 3 4 5
x 5
add to favorites
×
Save as Personal and add changes to this tab that will be seen only by you. Learn more ›
×
You can save this tab as Personal to edit and correct it or add notes. All changes will be seen only by you. Learn more »
launch autoscroll
font size
0
reset
guitar tuner
backing track
0:00
0:00
edit
Autoscroll
slow
fast
+/-
esc
set tempo
stop
Difficulty
   This song is really easy to play... Sooo Enjoy!


  Two bars after the drums come in play this
  12-12-12------------------------------------------------ X 5-|
  -------------------------------------------------------------|
  ----------------------------5-5-5-5-5-5-5-5------------------|
  ------------0-0-0-0-0-0-0-0----------------------------------|

Then chorus

  --------------------------------------------------------- --------|
  ------------------------------------------------------------------| X4
  -----------------7-7-7-7-5-5-5-5-----------------7-7-7-7-5-5-5-5--|
  -5-5-5-5-7-7-7-7-----------------5-5-5-5-7-7-7-7------------------|

Two bars then

  12-12-12------------------------------------------------ X 3-|
  -------------------------------------------------------------|
  ----------------------------5-5-5-5-5-5-5-5------------------|
  ------------0-0-0-0-0-0-0-0----------------------------------|

Then changes to after the fill

  ---------------------------------------------------------------------|
  ---------------------------------------------------------------------|
  -9-9-10-10---------------------------------------- 5 X16-------------|
  -----------------7-7-7-7-7-7-7-7-7-7-7-7-7-7-7-7-7-------------------|
   Passes to chorus via 7's ie. 7777 55

chorus

  Then chorus

  --------------------------------------------------------- --------|
  ------------------------------------------------------------------| X7
  -----------------7-7-7-7-5-5-5-5-----------------7-7-7-7-5-5-5-5--|
  -5-5-5-5-7-7-7-7-----------------5-5-5-5-7-7-7-7------------------|

  ----------------------------------------------------------------|
------------------------------------------------------------------|
-------7-5-7---7-5-7----7-5-7--0-3-2-0----------------------------|  X4
-----0-------0--------0-------------------------------------------|

-------------------------------------------------------------------------------|
-------------------------------------------------------------------------------|
-------------------------------------------------------------------------------|
-0-0-0-0-0-0-0-0-0-0-0-0-0-0-0-0-0-0-0-0-0-0-0-0-0-0-0-0-----------------------|
the  make it a creshdo i.e 0,1,2,3,4,0,2,3,4,5,3,4,5,6
Follow the guitars until pause

   Then chorus

  --------------------------------------------------------- --------|
  ------------------------------------------------------------------|
  -----------------7-7-7-7-5-5-5-5-----------------7-7-7-7-5-5-5-5--|
  -5-5-5-5-7-7-7-7-----------------5-5-5-5-7-7-7-7------------------|

Play til end

            
            
Suggest correction
Creating personal tab
Creating personal tab
You can edit any tab online and save it as your Personal.

You can edit, replace or remove any tab part or add personal notes – all changes will be seen only by you.

Personal tabs can be accessed anytime from any device, even offline.
Learn more »
comments
print report bad tab
guest
Wanna post a correction for this tab? Suggest correction