Oops, an error
Loading. Please wait.

Monster bass

version 2
version 2

Whole song

5,719 views 3 this week
3 commentsread comments
1 2 3 4 5
x 6
add to favorites
×
Save as Personal and add changes to this tab that will be seen only by you. Learn more ›
×
You can save this tab as Personal to edit and correct it or add notes. All changes will be seen only by you. Learn more »
launch autoscroll
font size
0
reset
guitar tuner
backing track
0:00
0:00
edit
Autoscroll
slow
fast
+/-
esc
set tempo
stop
Difficulty
Tabbed by: Janoh
BPM: 140 

This a great song. The bass should be correct but it's hard to hear it
even when I turned the equalizer up the bass just got more distorted. 
The verses have two bar gaps between the chorus but the 1st one has a 
four bar gap because of the intro. Remember everyone must join in the
singing in the chorus fact. Enjoy.

VERSE 1
(0:14) The bass comes in just after 14sec. at about 14.5
D----------------------------------------------------x4---|
G---------------------------------------------------------|
B-----------------------------5--5--5--5--5--5--5--5------|
E-----0--0--0--0--0--0--0--0------------------------------|
Bring bright to night through misuse, through misuse, through misuse

CHORUS 1
(0:42)
D---------------------------------------------------------------------x3---|
G--------------------------------------------------------------------------|
B-------------------------------------7-7-7-7-7-7-7-7-5-5-5-5-5-5-5-5------|
E-----5-5-5-5-5-5-5-5-7-7-7-7-7-7-7-7--------------------------------------|
What's that coming over the hill is it a monster?, is it a monster?


D---------------------------------------------|
G---------------------------------------------|
B---------------------------------------------|
E-----5-5-5-5-5-5-5-5-7-7-7-7-7-7-7-7-0-------|
What's that coming over the hill (hold on the zero)

VERSE 2
(1:13)
D----------------------------------------------------x2---|
G---------------------------------------------------------|
B-----------------------------5--5--5--5--5--5--5--5------|
E-----0--0--0--0--0--0--0--0------------------------------|
Confused mind bruised, it seeps out, it seeps out


D--------------------------------------------------------------------x2---|
G-------------------------------------------------------------------------|
B-----7-7-7-7-7-7-7-7-7-7-7-7-7-7-7-7-5-5-5-5-5-5-5-5-5-5-5-5-5/3-2-------|
E-------------------------------------------------------------------------|
Convexed you bend, twist and shout

CHORUS 2
(1:40)
D---------------------------------------------------------------------x6---|
G--------------------------------------------------------------------------|
B-------------------------------------7-7-7-7-7-7-7-7-5-5-5-5-5-5-5-5------|
E-----5-5-5-5-5-5-5-5-7-7-7-7-7-7-7-7--------------------------------------|
What's that coming over the hill is it a monster?, is it a monster?

BRIDGE
(2:26)
D-----------------------------------x4---|
G----------------------------------------|
B-------7-5-7--7-5-7--7-5-7-0-3-2--------|
E-----0------0------0--------------------|




D----------------------------x4---|
G---------------------------------|
B---------------------------------|
E-----0--0--0--0--0--0--0--0------|
Face down hometown, Face down hometown

(2:54)
D-------------------------------x2---|
G------------------------------------|
B-------7-5-7--7-5-7-----------------|
E-----0------0-------0--0--0--0------|
Face down hometown, Face down hometown


D-----------------------------x2---|
G----------------------------------|
B-------7-5-7--7-5-7---7-5-7-------|
E-----0------0-------0-------------|
Face down hometown, Face down hometown


D---------------------------|
G---------------------------|
B--------7-5-7-0-3-2--------|
E------0--------------------|
It looks so grey

CHORUS 3
(3:14)
D---------------------------------------------------------------------x3---|
G--------------------------------------------------------------------------|
B-------------------------------------7-7-7-7-7-7-7-7-5-5-5-5-5-5-5-5------|
E-----5-5-5-5-5-5-5-5-7-7-7-7-7-7-7-7--------------------------------------|
What's that coming over the hill is it a monster?, is it a monster?


D--------------------------------------------------------------------|
G--------------------------------------------------------------------|
B-------------------------------------2-2-----2-2-----2-2-----2------|
E-----0-0-0-0-0-0-0-0-2-2-2-2-2-2-2-2-----2-2-----2-2-----2-2--------|
Is it a monster

(In the radio version of this the pianist {high pitched screamo dude} finishes
the song whith a final "YAOW" at 3:37)

END

            
            
Suggest correction
Creating personal tab
Creating personal tab
You can edit any tab online and save it as your Personal.

You can edit, replace or remove any tab part or add personal notes – all changes will be seen only by you.

Personal tabs can be accessed anytime from any device, even offline.
Learn more »
comments
print report bad tab
3 comments total.
0 reply
JoshyD 82 Aug 13, 2007 08:26 PM

you mean A not B don't you

0 reply
Paul Lambeth 660 Mar 13, 2008 12:18 PM

Right, but the bridge/guitar solo DEFINATELY has more complex bass.

0 reply
RetroIndieTom 10 Feb 08, 2009 11:31 AM

It is 0-0-0-0-0-0-0-0-10-10-10-10-10-10-10-10

guest
Wanna post a correction for this tab? Suggest correction