Oops, an error
Loading. Please wait.

Monster tab

version 2
version 2

Whole song

4,787 views 1 this week
3 commentsread comments
1 2 3 4 5
x 3
add to favorites
×
Save as Personal and add changes to this tab that will be seen only by you. Learn more ›
×
You can save this tab as Personal to edit and correct it or add notes. All changes will be seen only by you. Learn more »
launch autoscroll
font size
0
reset
how to read this tab
guitar tuner
backing track
0:00
0:00
edit
Autoscroll
slow
fast
+/-
esc
set tempo
stop
Author
Tabbed By: McLuff

Tuning: Standard


Intro:

e|---------------------------------------|
B|-------12/15-15-13-12-13-12------------|
G|---9-9-----------------------11-11-----|
D|---------------------------------------| X3
A|---------------------------------------|
E|---------------------------------------|

e|-----------------------------15-14-12--|
B|-------12/15-15-13-12-13-12--------12--|
G|---9-9---------------------------------|
D|---------------------------------------|
A|---------------------------------------|
E|---------------------------------------|

Verse:

e|-------------------------------------------------------------|
B|--15---14---12-13-12-13-12-13-12-13-12-13-12-13-12-13-12-12--|
G|-------------------------------------------------------------|
D|-------------------------------------------------------------|
A|-------------------------------------------------------------|
E|-------------------------------------------------------------|

After Verse Just Before The Chorus:

e|----12---------|
B|----15b--------|
G|---------------|
D|---------------|
A|---------------|
E|---------------|


Chorus:

e|-------------------------------------------------------------------|
B|-------------------------------------------------------------------|
G|----------------------------------9-9-9-9-9-9-9-9-7-7-7-7-7-7-7-7--|
D|--7-7-7-7-7-7-7-7-9-9-9-9-9-9-9-9-9-9-9-9-9-9-9-9-7-7-7-7-7-7-7-7--|
A|--7-7-7-7-7-7-7-7-9-9-9-9-9-9-9-9-7-7-7-7-7-7-7-7-5-5-5-5-5-5-5-5--|
E|--5-5-5-5-5-5-5-5-7-7-7-7-7-7-7-7----------------------------------|

Solo:

e|---------------------------------------|
B|---------------------------------------|
G|--9--/11--/12--\11--\9--\7--/19-19-19--|
D|--x---x----x----x----x---x---x--x--x---| x3
A|--7--/9---/10--\9---\7--\5--/17-17-17--|
E|---------------------------------------|

e|-------------------------------------------|
B|-------------------------------------------|
G|--9--/11--/12--\11--\9--/11--/12--\11--\9\-|
D|--x---x----x----x----x---x----x----x----x--| 
A|--7--/9---/10--\9---\7--/9---/10--\9---\7\-|
E|-------------------------------------------|


Bridge:

e|------------------------------------------------------------|
B|------------------------------------------------------------|
G|--9-xx-9-9-9-9--12-11--9-xx-9-9-9-9--7\9-7\9--9-xx-9-9-9-9--|
D|--9-xx-9-9-9-9--12-11--9-xx-9-9-9-9--7\9-7\9--9-xx-9-9-9-9--|
A|--7-xx-7-7-7-7--10-10--7-xx-7-7-7-7--5\7-5\7--7-xx-7-7-7-7--|
E|------------------------------------------------------------|

e|-------------------------------------------|
B|-------------------------------------------|
G|--9-xx-9-9-9-9--12-11--9-xx-9-9-9-12---11--|
D|--9-xx-9-9-9-9--12-11--9-xx-9-9-9-12---11--|
A|--7-xx-7-7-7-7--10-10--7-xx-7-7-7-10---10--|
E|-------------------------------------------|

e|-------------------------------------------------------------------------|
B|-------------------------------------------------------------------------|
G|--9-9-9-9-9-9--11/12\11--9-9-9-9-9-9--14-13--9-9-9-9-9-9--14/16\14\12/14-|
D|--x-x-x-x-x-x---x--x-x---x-x-x-x-x-x--x--x---x-x-x-x-x-x--x--x--x--x--x--|
A|--7-7-7-7-7-7---9/10\9---7-7-7-7-7-7--12-11--7-7-7-7-7-7--12/14\12\10/12-|
E|-------------------------------------------------------------------------|


e|----------------------------------|------------------------------------
B|----------------------------------|------------------------------------
G|--9-9-9-9-9-9--19-19-19-19-19-19--|--9-9-9-9/11-11-11-11/12-12-12-12/--
D|--x-x-x-x-x-x--x--x--x--x--x--x---|--x-x-x-x--x--x--x--x-x--x--x--x----
A|--7-7-7-7-7-7--17-17-17-17-17-17--|--7-7-7-7/-9--9--9--9/10-10-10-10/--
E|----------------------------------|------------------------------------

e|-----------------------------------------------------------------|
B|-----------------------------------------------------------------|
G|--14-14-14-14/16-16-16-16/17-17-17-17/19-19-19-19-/20-20-20-20^--|
D|--x--x--x--x--x--x--x--x--x--x--x--x--x--x--x--x---x--x--x--x----|
A|--12-12-12-12/14-14-14-14/15-15-15-15/17-17-17-17-/18-18-18-18^--|
E|-----------------------------------------------------------------|


Outro:

e|------------------------------------------------------------------------|
B|------------------------------------------------------------------------|
G|---------------------------------------9-9-9-9-7-9-9-9-9-7-9-9-9-9-7-9--|
D|--10-10-10-10-10-10-12-12-12-12-12-12--9-9-9-9-7-9-9-9-9-7-9-9-9-9-7-9--|
A|--10-10-10-10-10-10-12-12-12-12-12-12--7-7-7-7-5-7-7-7-7-5-7-7-7-7-5-7--|
E|--8--8--8--8--8--8--10-10-10-10-10-10-----------------------------------|
   *This is only played once at the end of the song

Song order:
            Intro
            Verse
            Chorus
            Intro :Only start of it played once
            Verse
            Chorus
            Solo
            Bridge
            Chorus
            Outro

There we have it. An amazing song layed out infront of you.Enjoy

            
            
Suggest correction
Creating personal tab
Creating personal tab
You can edit any tab online and save it as your Personal.

You can edit, replace or remove any tab part or add personal notes – all changes will be seen only by you.

Personal tabs can be accessed anytime from any device, even offline.
Learn more »
Give kudos to tab author, rate the tab!
1 2 3 4 5
comments
print report bad tab
3 comments total.
0 reply
alex3z 10 Jun 21, 2006 09:23 AM

meh its ok!! not the greatest

0 reply
lewh 51 Jul 13, 2006 03:10 PM

i think the intro is great but at the end of the first bar, u got two 11s; i reckon the second one is a 12 :)

0 reply
lewh 51 Jul 13, 2006 03:17 PM

and instead of one 15 before the 14 and 2 12s at the end of the second bar, it shud two 15s, one after the other, not on two different strings :)

guest
You may want to rate the tab now too:
select rating
Wanna post a correction for this tab? Suggest correction