Oops, an error
Loading. Please wait.

Monster tab

version 3
version 3

Whole song

7,387 views 1 this week
6 commentsread comments
1 2 3 4 5
x 8
add to favorites
×
Save as Personal and add changes to this tab that will be seen only by you. Learn more ›
×
You can save this tab as Personal to edit and correct it or add notes. All changes will be seen only by you. Learn more »
launch autoscroll
font size
0
reset
how to read this tab
guitar tuner
backing track
0:00
0:00
edit
Autoscroll
slow
fast
+/-
esc
set tempo
stop
Author
Difficulty
The Automatic - Monster


Intro
-----

E [------------------------------------------]
B [-5---5/12-15-15-13p12-12---12\7---7-8p7\5-]
G [------------------------------------------]
D [------------------------------------------] (x3)
A [------------------------------------------]
E [------------------------------------------]

E [------------------------------15------14----12-]
B [-5---5/12-15-15-13p12-12---12------12----12----]
G [-----------------------------------------------]
D [-----------------------------------------------]
A [-----------------------------------------------]
E [-----------------------------------------------]


Verse 1
-------

E [-12----12----12----12----12----12----12----12------10---10---10---10---10---10---10---10-]
B [----12----12----12----12----12----12----12----12---12---12---12---12---12---12---12---12-]
G [-----------------------------------------------------------------------------------------]
D [-----------------------------------------------------------------------------------------]
A [-----------------------------------------------------------------------------------------]
E [-----------------------------------------------------------------------------------------]

before chorus play...

E [---12------]
B [---15b17---]
G [-----------]


Chorus
------

E [-----------------------------------------------------------------]
B [-----------------------------------------------------------------]
G [---------------------------------9-9-9-9-9-9-9-9-7-7-7-7-7-7-7-7-]
D [-7-7-7-7-7-7-7-7-9-9-9-9-9-9-9-9-9-9-9-9-9-9-9-9-7-7-7-7-7-7-7-7-]
A [-7-7-7-7-7-7-7-7-9-9-9-9-9-9-9-9-7-7-7-7-7-7-7-7-5-5-5-5-5-5-5-5-]
E [-5-5-5-5-5-5-5-5-7-7-7-7-7-7-7-7---------------------------------]

play three times then play...

E [---------------------------------------]
B [---------------------------------------]
G [---------------------------------9-----]
D [-7-7-7-7-7-7-7-7-9-9-9-9-9-9-9-9-9-----]
A [-7-7-7-7-7-7-7-7-9-9-9-9-9-9-9-9-7-----]
E [-5-5-5-5-5-5-5-5-7-7-7-7-7-7-7-7-------]

hold final E5 chord whilst second guitar plays...

E [------------------------------------------]
B [-5---5/12-15-15-13p12-12---12\7---7-8p7\5-]
G [------------------------------------------]
D [------------------------------------------]
A [------------------------------------------]
E [------------------------------------------]

E [------------------------------15------14----12-]
B [-5---5/12-15-15-13p12-12---12------12----12----]
G [-----------------------------------------------]
D [-----------------------------------------------]
A [-----------------------------------------------]
E [-----------------------------------------------]


Verse 2
-------

Guitar 1

E [-12----12----12----12----12----12----12----12------10---10---10---10---10---10---10---10-]
B [----12----12----12----12----12----12----12----12---12---12---12---12---12---12---12---12-]
G [-----------------------------------------------------------------------------------------]
D [-----------------------------------------------------------------------------------------]
A [-----------------------------------------------------------------------------------------]
E [-----------------------------------------------------------------------------------------]

E [-12----12----12----12----12----12----15----14------10---10---10---10---10---10---10---10-]
B [----12----12----12----12----12----12----12----12---12---12---12---12---12---12---12---12-]
G [-----------------------------------------------------------------------------------------]
D [-----------------------------------------------------------------------------------------]
A [-----------------------------------------------------------------------------------------]
E [-----------------------------------------------------------------------------------------]

E [----12----15----12----15----12----15----12----15-]
B [-12----12----12----12----12----12----12----12----]
G [-------------------------------------------------]
D [-------------------------------------------------] (x4)
A [-------------------------------------------------]
E [-------------------------------------------------]


Guitar 2 (payed over x4 repeated above riff)
--------

E [------------------------------------------]
B [-5---5/12-15-15-13p12-12---12\7---7-8p7\5-]
G [------------------------------------------]
D [------------------------------------------]
A [------------------------------------------]
E [------------------------------------------]

E [------------------------------15------14----12-]
B [-5---5/12-15-15-13p12-12---12------12----12----]
G [-----------------------------------------------]
D [-----------------------------------------------]
A [-----------------------------------------------]
E [-----------------------------------------------]


Chorus
------

E [-----------------------------------------------------------------]
B [-----------------------------------------------------------------]
G [---------------------------------9-9-9-9-9-9-9-9-7-7-7-7-7-7-7-7-]
D [-7-7-7-7-7-7-7-7-9-9-9-9-9-9-9-9-9-9-9-9-9-9-9-9-7-7-7-7-7-7-7-7-]
A [-7-7-7-7-7-7-7-7-9-9-9-9-9-9-9-9-7-7-7-7-7-7-7-7-5-5-5-5-5-5-5-5-]
E [-5-5-5-5-5-5-5-5-7-7-7-7-7-7-7-7---------------------------------]


Solo
----

all notes tremelo picked

E [--------------------------------]
B [--------------------------------]
G [-9---11--12---14---12---11/19---]
D [--------------------------------] (x3)
A [-7---9---10---12---10---9-------]
E [--------------------------------]

E [------------------------------------]
B [------------------------------------]
G [-9---11--12---14---12---11--9---7---]
D [------------------------------------]
A [-7---9---10---12---10---9---7---5---]
E [------------------------------------]


after solo play...

Guitar 1

E [-----------------------------------------------]
B [-12---x-x-12-x-x-12-x-x-12-x-x-12-x-x-12----12-]
G [--9---x-x--9-x-x--9-x-x--9-x-x--9-x-x-12----11-]
D [-----------------------------------------------]
A [-----------------------------------------------]
E [-----------------------------------------------]

E [-----------------------------------------------]
B [-12---x-x-12-x-x-12-x-x-12-x-x-12-x-x-12-12-12-]
G [--9---x-x--9-x-x--9-x-x--9-x-x--9-x-x-11-12-11-]
D [-----------------------------------------------]
A [-----------------------------------------------]
E [-----------------------------------------------]

E [------------------------------------------------]
B [-12---x-x-12-x-x-12-x-x-12-x-x-12-x-x-12-----12-]
G [--9---x-x--9-x-x--9-x-x--9-x-x--9-x-x-12-----11-]
D [------------------------------------------------]
A [------------------------------------------------]
E [------------------------------------------------]

E [------------------------------------------------]
B [-12---x-x-12-x-x-12-x-x-12-x-x-12---12-------12-]
G [--9---x-x--9-x-x--9-x-x--9-x-x--9---12-------11-]
D [------------------------------------------------]
A [------------------------------------------------]
E [------------------------------------------------]

E [-----------------------------------------------------------------]
B [-----------------------------------------------------------------]
G [-9---9---9---9---9---9---11--11--9---9---9---9---9---9---14---11-]
D [-----------------------------------------------------------------]
A [-7---7---7---7---7---7---9---9---7---7---7---7---7---7---12---10-]
E [-----------------------------------------------------------------]

                                                    (--guitar-2-fill--)
E [-------------------------------------------------------------------]
B [-------------------------------------------------------------------]
G [-9---9---9---9---9---9---14-12-14---9---9---9---9------------------]
D [-------------------------------------------------------------------]
A [-7---7---7---7---7---7---12-10-12---7---7---7---7------------------]
E [-------------------------------------------------------------------]

E [-----------------------------------------------------------------------------]
B [-----------------------------------------------------------------------------]
G [-x-9-x-9-x-9-x-9-x-11-x-11-x-11-x-11-x-12-x-12-x-12-x-12-x-14-x-14-x-14-x-14-]
D [-----------------------------------------------------------------------------]
A [-x-7-x-7-x-7-x-7-x-9--x-9--x-9--x-9--x-10-x-10-x-10-x-10-x-12-x-12-x-12-x-12-]
E [-----------------------------------------------------------------------------]

E [---------------------------------------------------------------------------------]
B [---------------------------------------------------------------------------------]
G [-x-16-x-16-x-16-x-16-x-17-x-17-x-17-x-17-x-19-x-19-x-19-x-19-x-21-x-21-x-21-x-21-]
D [---------------------------------------------------------------------------------]
A [-x-14-x-14-x-14-x-14-x-15-x-15-x-15-x-15-x-17-x-17-x-17-x-17-x-19-x-19-x-19-x-19-]
E [---------------------------------------------------------------------------------]


Guitar 2

(--guitar-2-fill--)

E [----15---14---12---]
B [-12----------------]
G [-------------------]
D [-------------------]
A [-------------------]
E [-------------------]

after fill play below riff over guitar 1's ascending octaves

E [-12----12----12----12----]
B [----12----12----12----12-]
G [-------------------------]
D [-------------------------]
A [-------------------------]
E [-------------------------]


Chorus
------

E [-----------------------------------------------------------------]
B [-----------------------------------------------------------------]
G [---------------------------------9-9-9-9-9-9-9-9-7-7-7-7-7-7-7-7-]
D [-7-7-7-7-7-7-7-7-9-9-9-9-9-9-9-9-9-9-9-9-9-9-9-9-7-7-7-7-7-7-7-7-]
A [-7-7-7-7-7-7-7-7-9-9-9-9-9-9-9-9-7-7-7-7-7-7-7-7-5-5-5-5-5-5-5-5-]
E [-5-5-5-5-5-5-5-5-7-7-7-7-7-7-7-7---------------------------------]


Outro
-----

Guitar 1

E [-----------------------------------------------------------------]
B [-----------------------------------------------------------------]
G [-5-5-5-5-5-5-5-5-4-4-4-4-4-4-4-4---------------------------------]
D [-5-5-5-5-5-5-5-5-4-4-4-4-4-4-4-4-2-2-2-2-2-2-2-2-2-2-2-2-2-2-2---]
A [-3-3-3-3-3-3-3-3-2-2-2-2-2-2-2-2-2-2-2-2-2-2-2-2-2-2-2-2-2-2-2---]
E [---------------------------------0-0-0-0-0-0-0-0-0-0-0-0-0-0-0---]


Guitar 2 (tremelo pick)

E [-----------------------------------------------------------------]
B [-----------------------------------------------------------------]
G [-12--------------14--------------16------------21----------------]
D [-----------------------------------------------------------------]
A [-10--------------12--------------14------------19----------------]
E [-----------------------------------------------------------------]


            
            
Suggest correction
Creating personal tab
Creating personal tab
You can edit any tab online and save it as your Personal.

You can edit, replace or remove any tab part or add personal notes – all changes will be seen only by you.

Personal tabs can be accessed anytime from any device, even offline.
Learn more »
comments
print report bad tab
6 comments total. Showing first comments.
+1 reply
ironflea3 10 Aug 22, 2006 09:04 AM

Well done, this is better than the best rated monster tab.

+1 reply
Donkey Fly 2,626 Aug 22, 2006 03:37 PM

the intro has delay in it...so there isnt that many notes.....

-1 reply
azzaspring 10 Aug 23, 2006 04:05 AM

what is with the solo! it sucks..... big time

guest
You may want to rate the tab now too:
select rating
Wanna post a correction for this tab? Suggest correction