Oops, an error
Loading. Please wait.

On The Campaign Trail tab

version 1
version 1

Whole song

600 views 3 this week
1 commentread comment
1 2 3 4 5
x 3
add to favorites
×
Save as Personal and add changes to this tab that will be seen only by you. Learn more ›
×
You can save this tab as Personal to edit and correct it or add notes. All changes will be seen only by you. Learn more »
launch autoscroll
font size
0
reset
how to read this tab
guitar tuner
edit
Autoscroll
slow
fast
+/-
esc
set tempo
stop
Author
This is played through all verses
e|-----------------------------------------------------------------------------|
B|-----------------------------------------------------------------------------|
G|--1---4-3-4-1-4-33-1-----------11---3-4-6s7-6-4-66-4-------------------------|
D|-----------------------------------------------------------------------------|
A|-----------------------------------------------------------------------------|
E|-----------------------------------------------------------------------------|

During the first 2 chorusses:
e|--------------------------------------------------------------------------------|
B|--------------------------------------------------------------------------------|
G|--1-1-4-1--1-4-1--1-4-1-4-1-4-1-1-----------------------------------------------|
D|--------------------------------------------1-1-4-1--1-4-1--1-4-1-4-1-4-1-1-----|
A|--------------------------------------------------------------------------------|
E|--------------------------------------------------------------------------------|

When returning to verse, it's just all strings muted around the first couple of frets.

at 1:57 on the third verse, chords are played (let them ring)
           Gsharp m     Fsharp            Gsharp m          Bb m       B        Csharp
e|--------4-------2-----\----------4--------6------7------9--------------------|
B|--------4-------2-----/----------4--------6------7------9--------------------|
G|--------4-------3--x2-\----------4x4------6x4---8x4----10x4------------------|
D|--------6-------4-----/----------6--------8------9------11-------------------|
A|--------6-------4-----\----------6--------8------9------11-------------------|
E|---------4-------2----/----------4--------6------7------9--------------------|
Suggest correction
Creating personal tab
Creating personal tab
You can edit any tab online and save it as your Personal.

You can edit, replace or remove any tab part or add personal notes – all changes will be seen only by you.

Personal tabs can be accessed anytime from any device, even offline.
Learn more »
Give kudos to tab author, rate the tab!
1 2 3 4 5
comments
print report bad tab
1 comment total.
+1 reply
Nightmare_xxx 140 Dec 21, 2006 07:11 AM

i think you got the main riff totally wrong :\

guest
You may want to rate the tab now too:
select rating
Wanna post a correction for this tab? Suggest correction