Oops, an error
Loading. Please wait.

Raoul tab

version 1
version 1

Whole song

Interactive

4,947 views 6 this week
15 commentsread comments
1 2 3 4 5
x 14
add to favorites
×
Save as Personal and add changes to this tab that will be seen only by you. Learn more ›
×
You can save this tab as Personal to edit and correct it or add notes. All changes will be seen only by you. Learn more »
launch autoscroll
font size
0
reset
how to read this tab
guitar tuner
edit
Autoscroll
slow
fast
+/-
esc
set tempo
stop
Tabbed by:Steve
Email:allchavsrgay@hotmail.com

Tuning: Standard

intro
e|-------------------------------------------------------------|
B|-------------------------------------------------------------|
G|-------------------------------------------------------------|
D|-6-6--6---6-6--6---9-9--9--9-9--9-----11-11-11---------------|   X 4
A|-6-6--6---6-6--6---9-9--9--9-9--9-----11-11-11---------------|
E|-4-4--4---4-4--4---7-7--7--7-7--7-----9--9--9----------------|


e|--------------------------------------|
B|--------------------------------------|
G|--------------------------------------|
D|-6-6--6---6-6--6---9-9-9-9-9-9-9-9----|   X 1
A|-6-6--6---6-6--6---9-9-9-9-9-9-9-9----|
E|-4-4--4---4-4--4---7-7-7-7-7-7-7-7----|
    
Chorus
e|------------------------------------------------------------------|\
B|------------------------------------------------------------------| \
G|------------------------------------------------------------------|  \
D|-4-4-4-4-4-4-4-4-4-4-4-4-4-4-4-4-4-4-4-4-4-4-4-4-4-4-4-4-4-4-4-4--|   |
A|-4-4-4-4-4-4-4-4-4-4-4-4-4-4-4-4-4-4-4-4-4-4-4-4-4-4-4-4-4-4-4-4--|   |
E|-2-2-2-2-2-2-2-2-2-2-2-2-2-2-2-2-2-2-2-2-2-2-2-2-2-2-2-2-2-2-2-2--|   |
                                                                        |X 2
e|------------------------------------------------------------------|   |
B|------------------------------------------------------------------|   |
G|-8-8-8-8-8-8-8-8-8-8-8-8-8-8-8-8-8-8-8-8-8-8-8-8-8-8-8-8-8-8-8-8--|   |
D|-8-8-8-8-8-8-8-8-8-8-8-8-8-8-8-8-8-8-8-8-8-8-8-8-8-8-8-8-8-8-8-8--|  /
A|-6-6-6-6-6-6-6-6-6-6-6-6-6-6-6-6-6-6-6-6-6-6-6-6-6-6-6-6-6-6-6-6--| /
E|------------------------------------------------------------------|/


Verse 
This is like the intro but the chords are strumed diffrently. The
struming is changed after the 2nd time round.
e|-------------------------------------------------------------|
B|-------------------------------------------------------------|
G|-------------------------------------------------------------|
D|-6-6--6---6-6--6---9-9--9--9-9--9-----11-11-11---------------|   X 4
A|-6-6--6---6-6--6---9-9--9--9-9--9-----11-11-11---------------|
E|-4-4--4---4-4--4---7-7--7--7-7--7-----9--9--9----------------|


Chorus
e|------------------------------------------------------------------|\
B|------------------------------------------------------------------| \
G|------------------------------------------------------------------|  \
D|-4-4-4-4-4-4-4-4-4-4-4-4-4-4-4-4-4-4-4-4-4-4-4-4-4-4-4-4-4-4-4-4--|   |
A|-4-4-4-4-4-4-4-4-4-4-4-4-4-4-4-4-4-4-4-4-4-4-4-4-4-4-4-4-4-4-4-4--|   |
E|-2-2-2-2-2-2-2-2-2-2-2-2-2-2-2-2-2-2-2-2-2-2-2-2-2-2-2-2-2-2-2-2--|   |
                                                                        |X 2
e|------------------------------------------------------------------|   |
B|------------------------------------------------------------------|   |
G|-8-8-8-8-8-8-8-8-8-8-8-8-8-8-8-8-8-8-8-8-8-8-8-8-8-8-8-8-8-8-8-8--|   |
D|-8-8-8-8-8-8-8-8-8-8-8-8-8-8-8-8-8-8-8-8-8-8-8-8-8-8-8-8-8-8-8-8--|  /
A|-6-6-6-6-6-6-6-6-6-6-6-6-6-6-6-6-6-6-6-6-6-6-6-6-6-6-6-6-6-6-6-6--| /
E|------------------------------------------------------------------|/

Bridge

e|--------------------------------------------------------------|
B|--------------------------------------------------------------|
G|--------------------------------------------------------------|
D|-6-6-6-6-6-6-6-6-6-6-6-6-6-6-6-6-9-9-9-9-9-9-9-9-11-11-11-11--|  X 5 
A|-6-6-6-6-6-6-6-6-6-6-6-6-6-6-6-6-9-9-9-9-9-9-9-9-11-11-11-11--|
E|-4-4-4-4-4-4-4-4-4-4-4-4-4-4-4-4-7-7-7-7-7-7-7-7-9--9--9--9---|

Chorus
e|------------------------------------------------------------------|\
B|------------------------------------------------------------------| \
G|------------------------------------------------------------------|  \
D|-4-4-4-4-4-4-4-4-4-4-4-4-4-4-4-4-4-4-4-4-4-4-4-4-4-4-4-4-4-4-4-4--|   |
A|-4-4-4-4-4-4-4-4-4-4-4-4-4-4-4-4-4-4-4-4-4-4-4-4-4-4-4-4-4-4-4-4--|   |
E|-2-2-2-2-2-2-2-2-2-2-2-2-2-2-2-2-2-2-2-2-2-2-2-2-2-2-2-2-2-2-2-2--|   |
                                                                        |X 6
e|------------------------------------------------------------------|   |
B|------------------------------------------------------------------|   |
G|-8-8-8-8-8-8-8-8-8-8-8-8-8-8-8-8-8-8-8-8-8-8-8-8-8-8-8-8-8-8-8-8--|   |
D|-8-8-8-8-8-8-8-8-8-8-8-8-8-8-8-8-8-8-8-8-8-8-8-8-8-8-8-8-8-8-8-8--|  /
A|-6-6-6-6-6-6-6-6-6-6-6-6-6-6-6-6-6-6-6-6-6-6-6-6-6-6-6-6-6-6-6-6--| /
E|------------------------------------------------------------------|/


Let last chord ring out.



            
            
Suggest correction
Creating personal tab
Creating personal tab
You can edit any tab online and save it as your Personal.

You can edit, replace or remove any tab part or add personal notes – all changes will be seen only by you.

Personal tabs can be accessed anytime from any device, even offline.
Learn more »
comments
print report bad tab
15 comments total. Showing first comments.
+1 reply
goodsum 575 May 26, 2006 11:57 AM

ur right, all chavs are gay

+1 reply
allchavsrgay 1,183 May 27, 2006 02:04 AM

Yes. i like your style chav = scum

-2 reply
leeboy105 30 May 31, 2006 10:15 AM

Your intro is slightly off, it's:

e|-------------------------------------------------------------|
B|-------------------------------------------------------------|
G|-------------------------------------------------------------|
D|-7-7--7---7-7--7---10-10--10--10-10--10-----12-12-12---------| X4
A|-7-7--7---7-7--7---10-10--10--10-10--10-----12-12-12---------|
E|-5-5--5---5-5--5---8--8---8---8--8---8------10-10-10---------|

guest
You may want to rate the tab now too:
select rating
Wanna post a correction for this tab? Suggest correction