Oops, an error
Loading. Please wait.
We have an official Recover tab made by UG professional guitarists. Check out the tab »
×
1,731 views 1 this week
3 commentsread comments
1 2 3 4 5
x 5
add to favorites
×
Save as Personal and add changes to this tab that will be seen only by you. Learn more ›
×
You can save this tab as Personal to edit and correct it or add notes. All changes will be seen only by you. Learn more »
launch autoscroll
font size
0
reset
guitar tuner
edit
Autoscroll
slow
fast
+/-
esc
set tempo
stop
Artist: The Automatic
Bassist: Rob Hawkins
Song: Recover
Album: Not Accepted Anywhere
Tabbed By: Lewis [lewis_mason21@hotmail.com]

This is my first tab, so apologies if it's bad or anything!  I used the studio 
and live clip to work it out.

[Tuning: Standard - E,A,D,G]

Verse One: [Played in time with the guitar]
("Can't fight! There's no escaping the facts" ... "Of good intentions")
G|----------------------------------------|
D|----------------------------------------|
A|-------------3-2-3----------------3-2-3-|
E|-5--3-5--3-5--------3-5--3-5--3-5-------| [x2]

Bridge: [Played in a slow, consistent rhythm]
("And I want my wasted hours back" ... "From late nights and bad films")
G|----------------------------------------|
D|----------------------------------------|
A|----------------------------------------|
E|-5-5-5-5-5-5-3-3--5-5-5-5-5-5-3-3-------| [x2]

Chorus: [Played in a faster, consisten rhythm to the bridge]
[Note: Those are "12"s, not "1"s and "2"s]
("Get up! Recover!" ... "Cause you'll never dance again")
G|----------------------------------------|
D|----------------------------------------|
A|-88888888-7771212121212-----------------|
E|----------------------------------------| [x4]

Post-Chorus:
G|----------------------------------------------|
D|----------------------------------------------|
A|-------------3-2-3----------------3-2-3-------|
E|-5--3-5--3-5--------3-5--3-5--3-5--------3-5~-|

Verse Two:
("I'm drip fed these pictures" ... "Said this life's not all it could be")
G|------------------REST------------------|
D|------------------REST------------------|
A|------------------REST------------------|
E|------------------REST------------------|

Bridge:
("Now did you catch what I said" ... "And there's nothing left to say")
G|----------------------------------------|
D|----------------------------------------|
A|----------------------------------------|
E|-5-5-5-5-5-5-3-3--5-5-5-5-5-5-3-3-------| [x2]

Chorus: [Note: Those are "12"s, not "1"s and "2"s]
("Get up! Recover!" ... "Cause you'll never dance again")
G|----------------------------------------|
D|----------------------------------------|
A|-88888888-7771212121212-----------------|
E|----------------------------------------| [x8]

Breakdown: [Pause each time the backing vocals come in]
("Can't dance, decide a future" ... "This disappointments so electric")
G|----------------------------------------|
D|----------------------------------------|
A|----------------------------------------|
E|-88888888-10101077777-------------------| [x4]

("Get up! Recover!")
G|----------------------------------------|
D|----------------------------------------|
A|----------------------------------------|
E|-88888888-101010~-----------------------|

Chorus: [Note: Those are "12"s, not "1"s and "2"s]
("Get up! Recover!" ... "Cause you'll never dance again")
G|----------------------------------------|
D|----------------------------------------|
A|-88888888-7771212121212-----------------|
E|----------------------------------------| [x8]

Solo: [Play the Verse part behind the guitar]
G|----------------------------------------|
D|----------------------------------------|
A|-------------3-2-3----------------3-2-3-|
E|-5--3-5--3-5--------3-5--3-5--3-5-------| [x2]

G|-----|
D|-----|
A|-----|
E|-3-5-|

            
            
Suggest correction
Creating personal tab
Creating personal tab
You can edit any tab online and save it as your Personal.

You can edit, replace or remove any tab part or add personal notes – all changes will be seen only by you.

Personal tabs can be accessed anytime from any device, even offline.
Learn more »
comments
print report bad tab
3 comments total.
0 reply
petewentzboy 165 Jul 28, 2007 07:25 AM

the bridge bit before the chorus is:

G|------------------------------------------
D|---7---7---7---7---7---7----5---5--------- x4 A|--------------------------------------------
E|-5---5---5---5---5---5----3---3----------------

0 reply
BiggerThanJesus 52 Nov 28, 2007 06:43 AM

the rest of its good apart from 'This disappointments so electric'
the bass plays another part in this section of the
break down

0 reply
BiggerThanJesus 52 Nov 28, 2007 06:54 AM

i think its
this
D----2---2---2---2---2---2---2---2----
A-------------------------------------
E--0---0---0---0---1---1---0---0--
----

guest
Wanna post a correction for this tab? Suggest correction