Oops, an error
Loading. Please wait.

Bonds In Which We Break tab

version 1
version 1

Whole song

Interactive

1,485 views 1 this week
no commentswrite comment
1 2 3 4 5
2 more votes to show rating
add to favorites
×
Save as Personal and add changes to this tab that will be seen only by you. Learn more ›
×
You can save this tab as Personal to edit and correct it or add notes. All changes will be seen only by you. Learn more »
launch autoscroll
font size
0
reset
how to read this tab
guitar tuner
edit
Autoscroll
slow
fast
+/-
esc
set tempo
stop
The Autumn Offering
Bonds in which we Break
Drop C

Tabbed By Jared Mulcahy
metal_guitar_pickups
@hotmail.com, @yahoo.com

This is my first tab, hope everything goes well.  Enjoy.

Guitar 1 - Tommy Church (Lead)
Guitar 2 - Matt Johnson (Rhythm)

Intro
Guitar 1
D  |--------------------------------------------------------------------|
A  |--------------------------------------------------------------------|
F  |--------------------------------------------------------------------|
C  |--1--4h3-4h3-4h3-4-6-4-3-----9---------------8---1/4-3--------------|
G  |--1----------------------4---9---6-8-9-8-6---8----------------------|
C  |--1--------------------------9---------------8----------------------|

Guitar 2
D  |--------------------------------------------------------------------|
A  |--------------------------------------------------------------------|
F  |--------------------------------------------------------------------|
C  |--1--------------------------9---------------8----------------------|
G  |--1--------------------------9---------------8----------------------|
C  |--1--------------------------9---------------8----------------------|

Guitar 1
D  |--------------------------------------------------------------------|
A  |--------------------------------------------------------------------|
F  |--------------------------------------------------------------------|
C  |--1--4h3-4h3-4h3-4-6-4-3-----9---------------8----------------------|
G  |--1----------------------4---9---------------8----------------------|
C  |--1--------------------------9---------------8----------------------|

Guitar 2
D  |--------------------------------------------------------------------|
A  |--------------------------------------------------------------------|
F  |--------------------------------------------------------------------|
C  |--1--------------------------9---------------8----------------------|
G  |--1--------------------------9---------------8----------------------|
C  |--1--------------------------9---------------8----------------------|
       ~~~~~~~~~~~




Verse 1 (x4)
Guitar 1
D  |-------------------------------------------------------|------------|
A  |-------------------------------------------------------|------------|
F  |-------------------------------------------------------|---1/4-3----|
C  |--1--4h3-4h3-4h3-4-6-4-3----9-------------8-----1/4-3--|------------|
G  |--1----------------------4--9--6-8-9-8-6--8------------|------------|
C  |--1-------------------------9-------------8------------|------------|
                                                        (Play this 4th time)
Guitar 2
D  |--------------------------------------------------------------------|
A  |--------------------------------------------------------------------|
F  |--------------------------------------------------------------------|
C  |--1--4h3-4h3-4h3-4-6-4-3----9-------------8-----1/4-3---------------|
G  |--1----------------------4--9--6-8-9-8-6--8-------------------------|
C  |--1-------------------------9-------------8-------------------------|




Verse 2 (x4)
Guitar 1
D  |--------------------------------------------------------------------|
A  |--------------------------------------------------------------------|
F  |-----4h3-4h3-4h3-4-6-4-3------------------------1/4-3---------------|
C  |--1---------------------6-1----6-8-9-8-6----------------------------|
G  |--1--------------------------------------6--------------------------|
C  |--1-----------------------------------------------------------------|

Guitar 2
D  |--------------------------------------------------------------------|
A  |--------------------------------------------------------------------|
F  |--------------------------------------------------------------------|
C  |--1--4h3-4h3-4h3-4-6-4-3----9-------------8-----1/4-3---------------|
G  |--1----------------------4--9--6-8-9-8-6--8-------------------------|
C  |--1-------------------------9-------------8-------------------------|




Verse 3
Guitar 1
D  |--------------------------------------------------------------------|
A  |--------------------------------------------------------------------|
F  |--------------------------------------------------------------------|
C  |--1------------4-3--------------------------------------------------|
G  |--1----------------4------------------------------------------------|
C  |--1-----0-0---------------------------------------------------------|
       ~~~~ . .
Guitar 2
D  |--------------------------------------------------------------------|
A  |--------------------------------------------------------------------|
F  |---------------3-1--------------------------------------------------|
C  |--1----------------3------------------------------------------------|
G  |--1-----------------------------------------------------------------|
C  |--1-----0-0---------------------------------------------------------|
       ~~~~ . .


Guitar 1
D  |--------------------------------------------------------------------|
A  |--------------------------------------------------------------------|
F  |-----------------------4-----4-----3-----4-------6-4-3-4------------|
C  |--0-2-3-2--1--------------------------------------------------------|
G  |--0-2-3-2--1--------------------------------------------------------|
C  |--0-2-3-2--1--------0-0---0-0---0-0---0-0---0-0---------------------|
      . . . .   ~~      . .   . .   . .   . .   . .
Guitar 2
D  |--------------------------------------------------------------------|
A  |--------------------------------------------------------------------|
F  |--------------------------------------------------------------------|
C  |--0-2-3-2--1-----------4-----4-----4-----3-------6-4-3-4------------|
G  |--0-2-3-2--1--------------------------------------------------------|
C  |--0-2-3-2--1--------0-0---0-0---0-0---0-0---0-0---------------------|
      . . . .   ~~      . .   . .   . .   . .   . .


Guitar 1
D  |--------------------------------------------------------------------|
A  |--------------------------------------------------------------------|
F  |-----------------------3-4-6-4-3------------------------------------|
C  |--0-2-3-2--1------1-4------------4-3-6-4-3-1------------------------|
G  |--0-2-3-2--1--------------------------------------------------------|
C  |--0-2-3-2--1--------------------------------------------------------|
      . . . .   ~~
Guitar 2
D  |--------------------------------------------------------------------|
A  |--------------------------------------------------------------------|
F  |-----------------------5-6-8-6-5------------------------------------|
C  |--0-2-3-2--1------3-6------------6-5-8-6-5-3------------------------|
G  |--0-2-3-2--1--------------------------------------------------------|
C  |--0-2-3-2--1--------------------------------------------------------|
      . . . .   ~~


Guitar 1
D  |--------------------------------------------------------------------|
A  |--------------------------------------------------------------------|
F  |--------------------------------------------------------------------|
C  |--0-2-3-2--1-----4-6-4-3--------------------------------------------|
G  |--0-2-3-2--1--------------------------------------------------------|
C  |--0-2-3-2--1--------------------------------------------------------|
      . . . .   ~~
Guitar 2
D  |--------------------------------------------------------------------|
A  |--------------------------------------------------------------------|
F  |---------------------4-3--------------------------------------------|
C  |--0-2-3-2--1-----4-3------------------------------------------------|
G  |--0-2-3-2--1--------------------------------------------------------|
C  |--0-2-3-2--1--------------------------------------------------------|
      . . . .   ~~




Guitars 1&2
D  |--------------------------------------------------------------------|
A  |--------------------------------------------------------------------|
F  |--------------------------------------------------------------------|
C  |--------------------------------------------------------------------|
G  |--------------------------------------------------------------------|
C  |--0-0---------------------------------------------------------------|
      . .

Guitar 1
D  |--------------------------------------------------------------------|
A  |--------------------------------------------------------------------|
F  |--------------------------------------------------------------------|
C  |--------------------------------------------------------------------|
G  |--------------------------------------------------------------------|
C  |-------000-0--------------------------------------------------------|
           ... .

Guitar 2
D  |--------------------------------------------------------------------|
A  |--------------------------------------------------------------------|
F  |--------------------------------------------------------------------|
C  |--------------------------------------------------------------------|
G  |--------------------------------------------------------------------|
C  |----------------0-00--000-------------------------------------------|
                    . ..  ...




Verse 4 (x4)
Guitar 1 
D  |--------------------------------------------------------------------|
A  |--------------------------------------------------------------------|
F  |-------------------------------------------3h1-1-1h3----------------|
C  |--------------------------------------------------------------------|
G  |--------------------------------------------------------------------|
C  |--0-0--000-0--0-00--000-0--0-00-000-0--0-0--------------------------|
      . .  ... .  . ..  ... .  . .. ... .  . .
Guitar 2
D  |--------------------------------------------------------------------|
A  |--------------------------------------------------------------------|
F  |-------------------------------------------4h3-4-4h3----------------|
C  |--------------------------------------------------------------------|
G  |--------------------------------------------------------------------|
C  |--0-0--000-0--0-00--000-0--0-00-000-0--0-0--------------------------|
      . .  ... .  . ..  ... .  . .. ... .  . .



Guitar 1 (x2) Guitar 2 (x4)
D  |--------------------------------------------------------------------|
A  |--------------------------------------------------------------------|
F  |--------------------------------------------------------------------|
C  |--------------------------------------------------------------------|
G  |--999-888-999-111111-999-888--------------888-999-111111------------|
C  |------------------------------111111-999------------------888-------|

D  |--------------------------------------------------------------------|
A  |--------------------------------------------------------------------|
F  |--------------------------------------------------------------------|
C  |--------------------------------------------------------------------|
G  |--888--111111-999---------------------------------------------------|
C  |--------------------------------------------------------------------|

Guitar 1 (x2)
D  |--------------------------------------------------------------------|
A  |--------------------------------------------------------------------|
F  |--------------------------------------------------------------------|
C  |--999-888-999-111111-999-888--------------888-999-111111------------|
G  |------------------------------111111-999------------------888-------|
C  |--------------------------------------------------------------------|

D  |--------------------------------------------------------------------|
A  |--------------------------------------------------------------------|
F  |--------------------------------------------------------------------|
C  |--888--111111-999---------------------------------------------------|
G  |--------------------------------------------------------------------|
C  |--------------------------------------------------------------------|




Verse 3
Guitar 1
D  |--------------------------------------------------------------------|
A  |--------------------------------------------------------------------|
F  |--------------------------------------------------------------------|
C  |--1------------4-3--------------------------------------------------|
G  |--1----------------4------------------------------------------------|
C  |--1-----0-0---------------------------------------------------------|
       ~~~~ . .
Guitar 2
D  |--------------------------------------------------------------------|
A  |--------------------------------------------------------------------|
F  |---------------3-1--------------------------------------------------|
C  |--1----------------3------------------------------------------------|
G  |--1-----------------------------------------------------------------|
C  |--1-----0-0---------------------------------------------------------|
       ~~~~ . .


Guitar 1
D  |--------------------------------------------------------------------|
A  |--------------------------------------------------------------------|
F  |-----------------------4-----4-----3-----4-------6-4-3-4------------|
C  |--0-2-3-2--1--------------------------------------------------------|
G  |--0-2-3-2--1--------------------------------------------------------|
C  |--0-2-3-2--1--------0-0---0-0---0-0---0-0---0-0---------------------|
      . . . .   ~~      . .   . .   . .   . .   . .
Guitar 2
D  |--------------------------------------------------------------------|
A  |--------------------------------------------------------------------|
F  |--------------------------------------------------------------------|
C  |--0-2-3-2--1-----------4-----4-----4-----3-------6-4-3-4------------|
G  |--0-2-3-2--1--------------------------------------------------------|
C  |--0-2-3-2--1--------0-0---0-0---0-0---0-0---0-0---------------------|
      . . . .   ~~      . .   . .   . .   . .   . .


Guitar 1
D  |--------------------------------------------------------------------|
A  |--------------------------------------------------------------------|
F  |-----------------------3-4-6-4-3------------------------------------|
C  |--0-2-3-2--1------1-4------------4-3-6-4-3-1------------------------|
G  |--0-2-3-2--1--------------------------------------------------------|
C  |--0-2-3-2--1--------------------------------------------------------|
      . . . .   ~~
Guitar 2
D  |--------------------------------------------------------------------|
A  |--------------------------------------------------------------------|
F  |-----------------------5-6-8-6-5------------------------------------|
C  |--0-2-3-2--1------3-6------------6-5-8-6-5-3------------------------|
G  |--0-2-3-2--1--------------------------------------------------------|
C  |--0-2-3-2--1--------------------------------------------------------|
      . . . .   ~~


Guitar 1
D  |--------------------------------------------------------------------|
A  |--------------------------------------------------------------------|
F  |--------------------------------------------------------------------|
C  |--0-2-3-2--1-----4-6-4-3--------------------------------------------|
G  |--0-2-3-2--1--------------------------------------------------------|
C  |--0-2-3-2--1--------------------------------------------------------|
      . . . .   ~~
Guitar 2
D  |--------------------------------------------------------------------|
A  |--------------------------------------------------------------------|
F  |---------------------4-3--------------------------------------------|
C  |--0-2-3-2--1-----4-3------------------------------------------------|
G  |--0-2-3-2--1--------------------------------------------------------|
C  |--0-2-3-2--1--------------------------------------------------------|
      . . . .   ~~


Guitar 1 (Clean)
D  |--------------------------------------------------------------------|
A  |--------------------------------------11-11---11----11--11---11-----|
F  |-----------15--15-15h16-18-16-15----11-11---11----10--10---10-------|
C  |--/13-15-16---------------------------------------------------------|
G  |--------------------------------------------------------------------|
C  |--------------------------------------------------------------------|

D  |--------------------------------------------------------------------|
A  |----------------------------------------11--------------------------|
F  |-----------15--15-15h16-18-16-15----11----11--10--------------------|
C  |--/13-15-16---------------------------------------------------------|
G  |--------------------------------------------------------------------|
C  |--------------------------------------------------------------------|

Guitar 1 (Distortion)
D  |--------------------------------------------------------------------|
A  |--------------------------------------------------------------------|
F  |------------------------------3-6-4-3---3-6-4-3---------------------|
C  |--------8----8-8/11-9-8-----4---------3-----------------------------|
G  |--6-8-9-------------------------------------------------------------|
C  |--------------------------------------------------------------------|

Guitar 2
D  |--------------------------------------------------------------------|
A  |--------------------------------------------------------------------|
F  |--------------------------------------------------------------------|
C  |--1-------------------------4---------3-----------------------------|
G  |--1-----------------------------------------------------------------|
C  |--1-----------------------------------------------------------------|
       ~~~~~~~~~~~~~~~~~~~~~~~~  ~~~~~~~~  ~~~~~~~~

Guitar 1
D  |--------------------------------------------------------------------|
A  |--------------------------------------------------------------------|
F  |--------------------------------------------------------------------|
C  |--------8----8-8/11-9-8-----4---------3-----------------------------|
G  |--6-8-9-------------------------------------------------------------|
C  |--------------------------------------------------------------------|

Guitar 2
D  |--------------------------------------------------------------------|
A  |--------------------------------------------------------------------|
F  |--------------------------------------------------------------------|
C  |--1-------------------------4---------3-----------------------------|
G  |--1-----------------------------------------------------------------|
C  |--1-----------------------------------------------------------------|
       ~~~~~~~~~~~~~~~~~~~~~~~~  ~~~~~~~~  ~~~~~~~~

Guitar 1
D  |--------------------------------------------------------------------|
A  |--------------------------------------------------------------------|
F  |--------------------------------------------------------------------|
C  |--------8----8-8/11-9-8-----131313-111111-999-888-------------------|
G  |--6-8-9-------------------------------------------------------------|
C  |--------------------------------------------------------------------|

D  |--------------------------------------------------------------------|
A  |--------------------------------------------------------------------|
F  |--------------------------------------------------------------------|
C  |--111111-9-8-6-8-6-4-3----------------------------------------------|
G  |--------------------------------------------------------------------|
C  |--------------------------------------------------------------------|

Guitar 2
D  |--------------------------------------------------------------------|
A  |--------------------------------------------------------------------|
F  |--------------------------------------------------------------------|
C  |--1-------------------------4---------3-----------------------------|
G  |--1-----------------------------------------------------------------|
C  |--1-----------------------------------------------------------------|
       ~~~~~~~~~~~~~~~~~~~~~~~~  ~~~~~~~~  ~~~~~~~~

Guitar 1
D  |--------------------------------------------------------------------|
A  |--------------------------------------------------------------------|
F  |------------------------------3---------1-3-------------------------|
C  |--------8----8-8/11-9-8-----3---6-4---3-----------------------------|
G  |--6-8-9-------------------------------------------------------------|
C  |--------------------------------------------------------------------|

Guitar 2
D  |--------------------------------------------------------------------|
A  |--------------------------------------------------------------------|
F  |--------------------------------------------------------------------|
C  |--1-------------------------4---------3-----------------------------|
G  |--1-----------------------------------------------------------------|
C  |--1-----------------------------------------------------------------|
       ~~~~~~~~~~~~~~~~~~~~~~~~  ~~~~~~~~  ~~~~~~~~




Guitar 1&2
D  |--------------------------------------------------------------------|
A  |--------------------------------------------------------------------|
F  |--------------------------------------------------------------------|
C  |--1-------------------------1---------------------------------------|
G  |--1-----------------------------------------------------------------|
C  |--1-----------------------------------------------------------------|
       ~~~~~~~~~~~~~~~~~~~~~~    ~~~~~~~~~~~~




Guitar 1 (x2)
D  |--------------------------------------------------------------------|
A  |--------------------------------------------------------------------|
F  |--------------------------------------------------------------------|
C  |--1--4h3-4h3-4h3-4-6-4-3----9-------------8-----1/4-3---------------|
G  |--1----------------------4--9--6-8-9-8-6--8-------------------------|
C  |--1-------------------------9-------------8-------------------------|

Guitar 1 (x2)
D  |--------------------------------------------------------------------|
A  |--------------------------------------------------------------------|
F  |-----4h3-4h3-4h3-4-6-4-3------------------------1/4-3---------------|
C  |--1---------------------6-1----6-8-9-8-6----------------------------|
G  |--1--------------------------------------6--------------------------|
C  |--1-----------------------------------------------------------------|

Guitar 2 (x4)
D  |--------------------------------------------------------------------|
A  |--------------------------------------------------------------------|
F  |--------------------------------------------------------------------|
C  |--1--4h3-4h3-4h3-4-6-4-3----9-------------8-----1/4-3---------------|
G  |--1----------------------4--9--6-8-9-8-6--8-------------------------|
C  |--1-------------------------9-------------8-------------------------|





End Riffs
Guitar 1 (x2)
D  |--------------------------------------------------------------------|
A  |--------------------------------------------------------------------|
F  |--------------------------------------------------------------------|
C  |--0-3-2-0-1-0-------------------------------------------------------|
G  |--0-3-2-0-1-0-------------------------------------------------------|
C  |--0-3-2-0-1-0-2^----------------------------------------------------|
      . . . . . . *

Guitar 2
D  |--------------------------------------------------------------------|
A  |--------------------------------------------------------------------|
F  |--------------------------------------------------------------------|
C  |--0-----------------------------------------------------------------|
G  |--0-----------------------------------------------------------------|
C  |--0-----------------------------------------------------------------|
      .



Guitar 1
D  |--------------------------------------------------------------------|
A  |--------------------------------------------------------------------|
F  |--------------------------------------------------------------------|
C  |--0-3-2-0-1-0-------------------------------------------------------|
G  |--0-3-2-0-1-0-------------------------------------------------------|
C  |--0-3-2-0-1-0-2^----------------------------------------------------|
      . . . . . . *

Guitar 2
D  |--------------------------------------------------------------------|
A  |--------------------------------------------------------------------|
F  |--------------------------------------------------------------------|
C  |--1-----------------------------------------------------------------|
G  |--1-----------------------------------------------------------------|
C  |--1-----------------------------------------------------------------|
       ~~~~~~~~~~~~



Guitar 1
D  |--------------------------------------------------------------------|
A  |--------------------------------------------------------------------|
F  |--------------------------------------------------------------------|
C  |--0-3-2-0-1-0-------------------------------------------------------|
G  |--0-3-2-0-1-0-------------------------------------------------------|
C  |--0-3-2-0-1-0-------------------------------------------------------|
      . . . . . .

Guitar 2
D  |--------------------------------------------------------------------|
A  |--------------------------------------------------------------------|
F  |--------------------------------------------------------------------|
C  |--(Pick Slide)------------------------------------------------------|
G  |--------------------------------------------------------------------|
C  |--18/----------------------------------------------------------------|




Guitar 1&2 (x7)
D  |--------------------------------------------------------------------|
A  |--------------------------------------------------------------------|
F  |--------------------------------------------------------------------|
C  |--0-3-2-0-1-0-------------------------------------------------------|
G  |--0-3-2-0-1-0-------------------------------------------------------|
C  |--0-3-2-0-1-0-2^----------------------------------------------------|
      . . . . . . *



Guitar 1&2
D  |--------------------------------------------------------------------|
A  |--------------------------------------------------------------------|
F  |--------------------------------------------------------------------|
C  |--0-3-2-0-1-0-------------------------------------------------------|
G  |--0-3-2-0-1-0-------------------------------------------------------|
C  |--0-3-2-0-1-0-------------------------------------------------------|
      . . . . . .



Guitar 1&2
D  |--------------------------------------------------------------------|
A  |--------------------------------------------------------------------|
F  |--------------------------------------------------------------------|
C  |-------------2--------------2--------------2------------------------|
G  |-------------2--------------2--------------2------------------------|
C  |--0-0-000-0--2---0-0-000-0--2---0-0-000-0--2---0-0-000-0------------|
      . . ... .      . . ... .      . . ... .      . . ... .


Suggest correction
Creating personal tab
Creating personal tab
You can edit any tab online and save it as your Personal.

You can edit, replace or remove any tab part or add personal notes – all changes will be seen only by you.

Personal tabs can be accessed anytime from any device, even offline.
Learn more »
Give kudos to tab author, rate the tab!
1 2 3 4 5
comments
print report bad tab
guest
You may want to rate the tab now too:
select rating
Wanna post a correction for this tab? Suggest correction