Oops, an error
Loading. Please wait.

Bonds In Which We Break tab

version 2
version 2

Whole song

Interactive

172 views 1 this week
1 commentread comment
1 2 3 4 5
x 3
add to favorites
×
Save as Personal and add changes to this tab that will be seen only by you. Learn more ›
×
You can save this tab as Personal to edit and correct it or add notes. All changes will be seen only by you. Learn more »
launch autoscroll
font size
0
reset
how to read this tab
guitar tuner
edit
Autoscroll
slow
fast
+/-
esc
set tempo
stop
THE AUTUMN OFFERING
BONDS IN WHICH WE BREAK
C#-G#-C#-F#-A#-D#

*=PALM MUTE
)=BEND (=UNBEND
H-HARMONICS
PH-PINCH HARMONICS

TABBED BY andherembrace

TAB INCLUDES WHOLE SONG WITH BOTH GTR PARTS


                                                          0:04
L
---------------------------------------------------------------|
---------------------------------------------------------------|
---------------------------------------------------------------|
------------------------------------8--------------7-----------|
-0-*-*-8-7--*-8-7-*-8-7-8-10-8-7----8--*-5-7-8-7-5-7--*-5--/8-7|
-0-0-0-----0------0--------------10-8--0-----------7--0--------|
R
---------------------------------------------------------------|
---------------------------------------------------------------|
---------------------------------------------------------------|
-0----------------------------------8--------------7-----------|
-0----------------------------------8--------------7-----------|
-0|---------------------------------8-|------------7-|---------|


0:04                                                     0:08
L
---------------------------------------------------------------|
---------------------------------------------------------------|
---------------------------------------------------------------|
------------------------------------8--------------7-----------|
-0-*-*-8-7--*-8-7-*-8-7-8-10-8-7----8--------------7-----------|
-0-0-0-----0------0--------------10-8-|------------7-|---------|
R
---------------------------------------------------------------|
---------------------------------------------------------------|
---------------------------------------------------------------|
-0-----------------------------------8--------------7----------|
-0-----------------------------------8--------------7----------|
-0|----------------------------------8-|------------7-|--------|


0:08                                                       0:12
BOTH
---------------------------------------------------------------|
---------------------------------------------------------------|
---------------------------------------------------------------|
------------------------------------8--------------7-----------|
-0-*-*-8-7--*-8-7-*-8-7-8-10-8-7----8--*-5-7-8-7-5-7--*-5--/8-7|
-0-0-0-----0------0--------------10-8--0-----------7--0--------|

0:12                                                       0:17
---------------------------------------------------------------|
---------------------------------------------------------------|
---------------------------------------------------------------|
------------------------------------8--------------7-----------|
-0-*-*-8-7--*-8-7-*-8-7-8-10-8-7----8--*-5-7-8-7-5-7--*-5--/8-7|
-0-0-0-----0------0--------------10-8--0-----------7--0--------|

0;17                                                       0:22
---------------------------------------------------------------|
---------------------------------------------------------------|
---------------------------------------------------------------|
------------------------------------8--------------7-----------|
-0-*-*-8-7--*-8-7-*-8-7-8-10-8-7----8--*-5-7-8-7-5-7--*-5--/8-7|
-0-0-0-----0------0--------------10-8--0-----------7--0--------|


0:22                                                      0:26
L
---------------------------------------------------------------|
---------------------------------------------------------------|
---------------------------------------------------------------|
------------------------------------8--------------7-------/8-7|
-0-*-*-8-7--*-8-7-*-8-7-8-10-8-7----8--*-5-7-8-7-5-7--*-5------|
-0-0-0-----0------0--------------10-8--0-----------7--0--------|
R
---------------------------------------------------------------|
---------------------------------------------------------------|
---------------------------------------------------------------|
------------------------------------8--------------7-----------|
-0-*-*-8-7--*-8-7-*-8-7-8-10-8-7----8--*-5-7-8-7-5-7--*-5--/8-7|
-0-0-0-----0------0--------------10-8--0-----------7--0--------|


0:26                                                       0:30
L
---------------------------------------------------------------|
---------------------------------------------------------------|
---------------------------------------------------------------|
-------7-5----7-5---7-5-7-8-7-5--------5-7-8-7-5------5--/8-7--|
-0-*-*------*-----*-------------8-5--*-----------4--*----------|
-0-0-0-----0------0------------------0--------------0----------|
R
---------------------------------------------------------------|
---------------------------------------------------------------|
---------------------------------------------------------------|
------------------------------------8--------------7-----------|
-0-*-*-8-7--*-8-7-*-8-7-8-10-8-7----8--*-5-7-8-7-5-7--*-5--/8-7|
-0-0-0-----0------0--------------10-8--0-----------7--0--------|


0:30                                                       0:35
L
---------------------------------------------------------------|
---------------------------------------------------------------|
---------------------------------------------------------------|
-------7-5----7-5---7-5-7-8-7-5--------5-7-8-7-5------5--/8-7--|
-0-*-*------*-----*-------------8-5--*-----------4--*----------|
-0-0-0-----0------0------------------0--------------0----------|
R
---------------------------------------------------------------|
---------------------------------------------------------------|
---------------------------------------------------------------|
------------------------------------8--------------7-----------|
-0-*-*-8-7--*-8-7-*-8-7-8-10-8-7----8--*-5-7-8-7-5-7--*-5--/8-7|
-0-0-0-----0------0--------------10-8--0-----------7--0--------|


0:35                                                      0:39
L
---------------------------------------------------------------|
---------------------------------------------------------------|
---------------------------------------------------------------|
-------7-5----7-5---7-5-7-8-7-5--------5-7-8-7-5------5--/8-7--|
-0-*-*------*-----*-------------8-5--*-----------4--*----------|
-0-0-0-----0------0------------------0--------------0----------|
R
---------------------------------------------------------------|
---------------------------------------------------------------|
---------------------------------------------------------------|
------------------------------------8--------------7-----------|
-0-*-*-8-7--*-8-7-*-8-7-8-10-8-7----8--*-5-7-8-7-5-7--*-5--/8-7|
-0-0-0-----0------0--------------10-8--0-----------7--0--------|

0:39                                                     0:44   
L
---------------------------------------------------------------|
---------------------------------------------------------------|
---------------------------------------------------------------|
-------7-5----7-5---7-5-7-8-7-5--------5-7-8-7-5------5--/8-7--|
-0-*-*------*-----*-------------8-5--*-----------4--*----------|
-0-0-0-----0------0------------------0--------------0----------|
R
---------------------------------------------------------------|
---------------------------------------------------------------|
---------------------------------------------------------------|
------------------------------------8--------------7-----------|
-0-*-*-8-7--*-8-7-*-8-7-8-10-8-7----8--*-5-7-8-7-5-7--*-5--/8-7|
-0-0-0-----0------0--------------10-8--0-----------7--0--------|


0:44                                                                       0:54
L
--------------------------------------------------------------------------------|
--------------------------------------------------------------------------------|
----------10--9--5--------------------------------------------------------------|
-0---------X--X--X---------0-----*-*-8-*-*-8-*-8-*-*-7-*-10-8-7-8---------0-----|
-0-----*-*-8--7--3-*-*-*-*-0-----8-8---8-8---8---7-7---7----------*-*-*-*-0-----|
-0-----0-0---------0-1-3-1-0--------------------------------------0-1-3-1-0-----|
R
--------------------------------------------------------------------------------|
--------------------------------------------------------------------------------|
----------14-12--9--------------------------------------------------------------|
-0---------X--X--X---------0----------------------------------------------0-----|
-0-----*-*12-10--7-*-*-*-*-0-----*-*-8-*-*-8-*-8-*-*-7-*----------*-*-*-*-0-----|
-0-----0-0---------0-1-3-1-0-----8-8---8-8---8---7-7---7-10-8-7-8-0-1-3-1-0-----|



0:54                                                                    1:01
L
----------------------------------------------------------------------------|
----------------------------------------------------------------------------|
-------------------------------------------------------------___________----|
----------8-10-8-7------------------------0-----------------/           \---|
-5-7-8-10----------7-8-10-8-7-5-4-*-*-*-*-0-----8-------8--7-8-7-8-7-8-7-8-\|
----------------------------------0-1-3-1-0---------10---------------------\|
R
-----------------------------------------------------------------------------|
--------------------------------------------------------------___________----|
---------7-8-7-5---------------------------------------------/           \---|
-----7-8---------5-7-8-7-5----------------0--------------8--7-8-7-8-7-8-7-8--|
-8-10-----------------------8-7---*-*-*-*-0-----8----7----------------------\|
----------------------------------0-1-3-1-0---------------------------------\|

1:01                                                                        1;08
L
---------------------------------------------------------------------------------|
---------------------------------------------------------------------------------|
-------------------------------------------------------------------^---------^---|
------------------------------------------------------------------7-5---5---5-7--|
-*-*--***-*-------------*-*--***-*--*-*-*-***-*--*-*-*-***-*--*-*-----*---*------|
-0-0--000-0-------------0-0--000-0--0-0-0-000-0--0-0-0-000-0--0-0-----0---0------|
R
---------------------------------------------------------------------------------|
---------------------------------------------------------------------------------|
---------------------------------------------------------------------------------|
-------------------------------------------------------------------^---------^---|
-*-*---------*-*-*-***--*-*--***-*--*-*-*-***-*--*-*-*-***-*--*-*-8-7-*-7-*-7-8--|
-0-0---------0-0-0-000--0-0--000-0--0-0-0-000-0--0-0-0-000-0--0-0-----0---0------|


1:08                                                  1:12
L
------------------------------------------------------------|
------------------------------------------------------------|
----------------------------------------------^---------^---|
---------------------------------------------7-5---5---5-7--|
---*-*--***-*--*-*-*-***-*--*-*-*-***-*--*-*-----*---*------|
---0-0--000-0--0-0-0-000-0--0-0-0-000-0--0-0-----0---0------|
R
------------------------------------------------------------|
------------------------------------------------------------|
------------------------------------------------------------|
----------------------------------------------^---------^---|
---*-*--***-*--*-*-*-***-*--*-*-*-***-*--*-*-8-7-*-7-*-7-8--|
---0-0--000-0--0-0-0-000-0--0-0-0-000-0--0-0-----0---0------|


1;12                                                   1:17
L
------------------------------------------------------------|
------------------------------------------------------------|
----------------------------------------------^---------^---|
---------------------------------------------7-5---5---5-7--|
---*-*--***-*--*-*-*-***-*--*-*-*-***-*--*-*-----*---*------|
---0-0--000-0--0-0-0-000-0--0-0-0-000-0--0-0-----0---0------|
R
------------------------------------------------------------|
------------------------------------------------------------|
------------------------------------------------------------|
----------------------------------------------^---------^---|
---*-*--***-*--*-*-*-***-*--*-*-*-***-*--*-*-8-7-*-7-*-7-8--|
---0-0--000-0--0-0-0-000-0--0-0-0-000-0--0-0-----0---0------|


1:17                                                   1:21
L
------------------------------------------------------------|
------------------------------------------------------------|
----------------------------------------------^---------^---|
---------------------------------------------7-5---5---5-7--|
---*-*--***-*--*-*-*-***-*--*-*-*-***-*--*-*-----*---*------|
---0-0--000-0--0-0-0-000-0--0-0-0-000-0--0-0-----0---0------|
R
------------------------------------------------------------|
------------------------------------------------------------|
------------------------------------------------------------|
----------------------------------------------^---------^---|
---*-*--***-*--*-*-*-***-*--*-*-*-***-*--*-*-8-7-*-7-*-7-8--|
---0-0--000-0--0-0-0-000-0--0-0-0-000-0--0-0-----0---0------|


1:21                                                                        1:25
BOTH
----------------------------------------------------------------------------------|
----------------------------------------------------------------------------------|
----------------------------------------------------------------------------------|
----------------------------------------------------------------------------------|
----8888-7777-8888-10101010-8888-7777-------------5555-7777-8888----5555-8888-7777|
0000---------------------------------10101010-8888--------------7777--------------|


1:25                                                                         1:29
BOTH
----------------------------------------------------------------------------------|
----------------------------------------------------------------------------------|
----------------------------------------------------------------------------------|
----------------------------------------------------------------------------------|
----8888-7777-8888-10101010-8888-7777-------------5555-7777-8888----5555-8888-7777|
0000---------------------------------10101010-8888--------------7777--------------|


1:29                                                                        1:34
L
-----------------------------------------------------------------------------------|
-----------------------------------------------------------------------------------|
-----------------------------------------------------------------------------------|
----8888-7777-8888-10101010-8888-7777-------------5555-7777-8888----5555-8888-7777-|
-------------------------------------10101010-8888--------------7777---------------|
0000-------------------------------------------------------------------------------|
R
-----------------------------------------------------------------------------------|
-----------------------------------------------------------------------------------|
-----------------------------------------------------------------------------------|
-----------------------------------------------------------------------------------|
----8888-7777-8888-10101010-8888-7777-------------5555-7777-8888----5555-8888-7777-|
0000---------------------------------10101010-8888--------------7777---------------|


1:34                                                                         1:38
L
-----------------------------------------------------------------------------------|
-----------------------------------------------------------------------------------|
-----------------------------------------------------------------------------------|
----8888-7777-8888-10101010-8888-7777-------------5555-7777-8888----5555-8888-7777-|
-------------------------------------10101010-8888--------------7777---------------|
0000-------------------------------------------------------------------------------|
R
-----------------------------------------------------------------------------------|
-----------------------------------------------------------------------------------|
-----------------------------------------------------------------------------------|
-----------------------------------------------------------------------------------|
----8888-7777-8888-10101010-8888-7777-------------5555-7777-8888----5555-8888-7777-|
0000---------------------------------10101010-8888--------------7777---------------|


1:38                                                                       1:48
L
--------------------------------------------------------------------------------|
--------------------------------------------------------------------------------|
----------10--9--5--------------------------------------------------------------|
-0---------X--X--X---------0-----*-*-8-*-*-8-*-8-*-*-7-*-10-8-7-8---------0-----|
-0-----*-*-8--7--3-*-*-*-*-0-----8-8---8-8---8---7-7---7----------*-*-*-*-0-----|
-0-----0-0---------0-1-3-1-0--------------------------------------0-1-3-1-0-----|
R
--------------------------------------------------------------------------------|
--------------------------------------------------------------------------------|
----------14-12--9--------------------------------------------------------------|
-0---------X--X--X---------0----------------------------------------------0-----|
-0-----*-*12-10--7-*-*-*-*-0-----*-*-8-*-*-8-*-8-*-*-7-*----------*-*-*-*-0-----|
-0-----0-0---------0-1-3-1-0-----8-8---8-8---8---7-7---7-10-8-7-8-0-1-3-1-0-----|



1:48                                                                    1:55
L
----------------------------------------------------------------------------|
----------------------------------------------------------------------------|
-------------------------------------------------------------___________----|
----------8-10-8-7------------------------0-----------------/           \---|
-5-7-8-10----------7-8-10-8-7-5-4-*-*-*-*-0-----8-------8--7-8-7-8-7-8-7-8-\|
----------------------------------0-1-3-1-0---------10---------------------\|
R
-----------------------------------------------------------------------------|
--------------------------------------------------------------___________----|
---------7-8-7-5---------------------------------------------/           \---|
-----7-8---------5-7-8-7-5----------------0--------------8--7-8-7-8-7-8-7-8--|
-8-10-----------------------8-7---*-*-*-*-0-----8----7----------------------\|
----------------------------------0-1-3-1-0---------------------------------\|


1:55                                                                        2:04
CLEAN
-----------------------------------------__--------------------------------------|
----------------------------^---13------/  \-------------------------------------|
-------------14--14-14-14-14-15----15-14-15-14-----14-----14----14---14----14----|
-12-12-14-15-------------------------------------15----15----15----14----14----14|
---------------------------------------------------------------------------------|
---------------------------------------------------------------------------------|
ACOUSTIC
---------------------------------------------------------------------------------|
-------5-------------------------------------------------------------------------|
----------7---------------------------------------10--------10----9---------9----|
----7--------7------------------------------------8----8----------7---7----------|
-0------------------------------------------------8-------8----8--7------7-----7-|
-0------------------------------------------------8---------------7--------------|

2:04                                                                       2:11
C
-----------------------------------------__------------------------------------|
----------------------------^---13------/  \-----------------------------------|
-------------14--14-14-14-14-15----15-14-15-14----------14---------------------|
-12-12-14-15-------------------------------------15------------14------11------|
-------------------------------------------------------------------------------|
-------------------------------------------------------------------------------|
A
-------------------------------------------------------------------------------|
-------------------------------------------------------------------------------|
--------------------------------------------------------10------------9--------|
---0-------------------------------------------------------8------------7------|
--0-----------------------------------------------8--------------7-------------|
-0------------------------------------------------8--------------7-------------|


2:11                                                           2:19
MELODY
-------------------------------------------------------------------|
-------------------------------------------------------------------|
-----------)(-------------)(---------------------------------------|
----------7-----7-8-10-8-7------7---10---8---7-----7---10---8---7--|
-5-55-7-8---------------------8---8----8---8---8-7---7----7---7----|
-------------------------------------------------------------------|
RYTHM
-------------------------------------------------------------------|
-------------------------------------------------------------------|
------------------------------10-------------------9---------------|
-0-----------------------------8-------------------7---------------|
-0-----------------------------8-------------------7---------------|
-0-----------------------------8-------------------7---------------|


2:19                                                               2:26
MEL
-----------------------------------------------------------------------|
-----------------------------___________-------------------------------|
-----------)(---------------/           \------------------------------|
----------7--7-7--7-8-10-8-7-8-7-8-7-8-7-8------7---7---7----7---7-----|
-5-55-7-8-----------------------------------8-----8---8---7----7---7/\-|
-----------------------------------------------------------------------|
R
-------------------------------------------------------------------|
-------------------------------------------------------------------|
------------------------------10-------------------9---------------|
-0-----------------------------8-------------------7---------------|
-0-----------------------------8-------------------7---------------|
-0-----------------------------8-------------------7---------------|


2:26                                                                       2:33
MEL
-------------------------------------------------------------------------------|
----------------------------__---------------------------------_---------------|
----------)(---------------/  \-------------------------------/ \--------------|
---------7--7-7-7-7-8-10-8-7-8-7-5-/121212121010101088887777-7-8-7-------------|
5-55-7-8-----------------------------------------------------------10-8-7-8-7--|
-----------------------------------------------------------------------------10|
R
-------------------------------------------------------------------|
-------------------------------------------------------------------|
------------------------------10-------------------9---------------|
-0-----------------------------8-------------------7---------------|
-0-----------------------------8-------------------7---------------|
-0-----------------------------8-------------------7---------------|


2:33                                                           2:40
MEL
-------------------------------------------------------------------|
-----------------------------___________---------------------------|
-----------)(---------------/           \--------------------9-----|
----------7--7-7--7-8-10-8-7-8-7-8-7-8-7-8-----7--5--------------PS|
-5-55-7-8-----------------------------------8---------8--7--------\|
-------------------------------------------------------------------|
R
-------------------------------------------------------------------|
-------------------------------------------------------------------|
------------------------------10-------------------9---------------|
-0-----------------------------8-------------------7---------------|
-0-----------------------------8-------------------7---------------|
-0-----------------------------8-------------------7---------------|

2:40                                                    2:49
1
---------------------------------------------------------------|
---------------------------------------------------------------|
------------------------------7--------------------------------|
-0----------------------------X--------------------------------|
-0----------------------------5-------------------------\------|
-0------------------------------------------------------\------|
2
---------------------------------/DIRECTLY OVER 3RD FRET-------|
--------------------------------H------------------------------|
--------------H---------VOLDOWN-3--------------SWELL-----------|
-0------------4-------------------------------------------P----|
-0---------------------------------------------------------S\--|
-0-------------------------------------------------------------|


2:49                                                       2:53
BOTH
---------------------------------------------------------------|
---------------------------------------------------------------|
---------------------------------------------------------------|
------------------------------------8--------------7-----------|
-0-*-*-8-7--*-8-7-*-8-7-8-10-8-7----8--*-5-7-8-7-5-7--*-5--/8-7|
-0-0-0-----0------0--------------10-8--0-----------7--0--------|

2:53                                                      2:57
---------------------------------------------------------------|
---------------------------------------------------------------|
---------------------------------------------------------------|
------------------------------------8--------------7-----------|
-0-*-*-8-7--*-8-7-*-8-7-8-10-8-7----8--*-5-7-8-7-5-7--*-5--/8-7|
-0-0-0-----0------0--------------10-8--0-----------7--0--------|


2:57                                                      3:01
L
---------------------------------------------------------------|
---------------------------------------------------------------|
---------------------------------------------------------------|
-------7-5----7-5---7-5-7-8-7-5--------5-7-8-7-5------5--/8-7--|
-0-*-*------*-----*-------------8-5--*-----------4--*----------|
-0-0-0-----0------0------------------0--------------0----------|
R
---------------------------------------------------------------|
---------------------------------------------------------------|
---------------------------------------------------------------|
------------------------------------8--------------7-----------|
-0-*-*-8-7--*-8-7-*-8-7-8-10-8-7----8--*-5-7-8-7-5-7--*-5--/8-7|
-0-0-0-----0------0--------------10-8--0-----------7--0--------|


3:01                                                       3:06
L
---------------------------------------------------------------|
---------------------------------------------------------------|
---------------------------------------------------------------|
-------7-5----7-5---7-5-7-8-7-5--------5-7-8-7-5------5--/8-7--|
-0-*-*------*-----*-------------8-5--*-----------4--*----------|
-0-0-0-----0------0------------------0--------------0----------|
R
---------------------------------------------------------------|
---------------------------------------------------------------|
---------------------------------------------------------------|
------------------------------------8--------------7-----------|
-0-*-*-8-7--*-8-7-*-8-7-8-10-8-7----8--*-5-7-8-7-5-7--*-5--/8-7|
-0-0-0-----0------0--------------10-8--0-----------7--0--------|


3:06                                                              3:13
L
---------------------------------------------------------------------|
---------------------------------------------------------------------|
---------------------------------------------------------------------|
-*-*-*-*-*-*-P-----*-*-*-*-*-*-P-----*-*-*-*-*-*-P-----*-*-*-*-*-*---|
-0-4-3-1-3-0-H)(-)-0-4-3-1-3-0-H)(-)-0-4-3-1-3-0-H)(-)-0-4-3-1-3-0-\-|
-0-4-3-1-3-0-3-----0-4-3-1-3-0-3-----0-4-3-1-3-0-3-----0-4-3-1-3-0-\-|
R
---------------------------------------------------------------------|
---------------------------------------------------------------------|
---------------------------------------------------------------------|
-*------------------------------------0---------------P--------------|
-0------------------------------------0----------------S\------------|
-0------------------------------------0------------------\-----------|


3:13                                                                 3:18
BOTH
-------------------------------------------------------------------------|
-------------------------------------------------------------------------|
-------------------------------------------------------------------------|
-*-*-*-*-*-*-P-----*-*-*-*-*-*-P-----*-*-*-*-*-*-P-----*-*-*-*-*-*-P-----|
-0-4-3-1-3-0-H)(-)-0-4-3-1-3-0-H)(-)-0-4-3-1-3-0-H)(-)-0-4-3-1-3-0-H)(-)-|
-0-4-3-1-3-0-3-----0-4-3-1-3-0-3-----0-4-3-1-3-0-3-----0-4-3-1-3-0-3-----|


3:18                                                            3:24
---------------------------------------------------------------------|
---------------------------------------------------------------------|
---------------------------------------------------------------------|
-*-*-*-*-*-*-P-----*-*-*-*-*-*-P-----*-*-*-*-*-*-P-----*-*-*-*-*-*---|
-0-4-3-1-3-0-H)(-)-0-4-3-1-3-0-H)(-)-0-4-3-1-3-0-H)(-)-0-4-3-1-3-0-\-|
-0-4-3-1-3-0-3-----0-4-3-1-3-0-3-----0-4-3-1-3-0-3-----0-4-3-1-3-0-\-|


3:24                                                      END
---------------------------------------------------------------|
---------------------------------------------------------------|
---------------------------------------------------------------|
---------------------------------------------------------------|
-*-*-***-*-1--*-*-***-*-1--*-*-***-*-1--*-*-***-*--------------|
-0-0-000-0-1--0-0-000-0-1--0-0-000-0-1--0-0-000-0--------------|



            
            
Suggest correction
Creating personal tab
Creating personal tab
You can edit any tab online and save it as your Personal.

You can edit, replace or remove any tab part or add personal notes – all changes will be seen only by you.

Personal tabs can be accessed anytime from any device, even offline.
Learn more »
Give kudos to tab author, rate the tab!
1 2 3 4 5
comments
print report bad tab
1 comment total.
0 reply
andherembrace 5,631 Feb 19, 2012 03:15 PM

3rd from last note on 1st line and all riffs like it is a 4 instead of a 5

guest
You may want to rate the tab now too:
select rating
Wanna post a correction for this tab? Suggest correction