Oops, an error
Loading. Please wait.

Calm After The Storm tab

952 views 1 this week
no commentswrite comment
1 2 3 4 5
1 last vote to show rating
add to favorites
×
Save as Personal and add changes to this tab that will be seen only by you. Learn more ›
×
You can save this tab as Personal to edit and correct it or add notes. All changes will be seen only by you. Learn more »
launch autoscroll
font size
0
reset
how to read this tab
guitar tuner
edit
Autoscroll
slow
fast
+/-
esc
set tempo
stop
The Autumn Offering
Calm after the storm
C#-G#-C#-F#-A#-D#

TABBED BY-andherembrace

THE REVELATIONS OF THE UNSUNG ALBUM IS IN C#-G#-C#-F#-A#-D#
NOT C-G-C-F-A-D.THEY SWITCHED TO DROP C FOR EMBRACE THE GUTTER

BOTH GTR PARTS+SOLO WITH TIMELINE

L
0:00                                          0:04
-----------------------------------------------------|
-----------------------------------------------------|
-------_---------------------------------------------|
------/ \---^----------------------------------------|
-***-8-7-0-3-5-*-*-----------3-0----ps\--------------|
-000-----------0-0-----------3-0------\--------------|
R
-----------------------------------------------------|
-----------------------------------------------------|
-------_---------------------------------------------|
------/ \---^---------------------bar----------------|
-***-8-7-0-3-5-*-*-***-***-*-3-0---dip---------------|
-000-----------0-0-000-000-0-3-0-------\-------------|


L
0:04                                                        0:08
------------------------------------------------------------------|
------------------------------------------------------------------|
-------_-----------------------------_------------ph-------ph-----|
------/ \---^-----------------------/ \---^----ph-12-ph-ph-10-ph--|
-*-*-8-7-0-3-5-*-*-----------3-0---8-7-0-3-5-*-11----11-8-----8---|
-0-0-----------0-0-----------3-0-------------0--------------------|
R
-----------------------------------------------------------------|
-----------------------------------------------------------------|
-------_-----------------------------_---------------------------|
------/ \---^-----------------------/ \---^----------------ph----|
-*-*-8-7-0-3-5-*-*-***-***-*-3-0---8-7-0-3-5-*-----5-------2-----|
-0-0-----------0-0-000-000-0-3-0-------------0--6-----6--3----3--|

L
0:08                                                          1:12
------------------------------------------------------------------|
------------------------------------------------------------------|
-------_-----------------------------_------------ph-------ph-----|
------/ \---^-----------------------/ \---^----ph-12-ph-ph-10-ph--|
-*-*-8-7-0-3-5-*-*-----------3-0---8-7-0-3-5-*-11----11-8-----8---|
-0-0-----------0-0-----------3-0-------------0--------------------|
R
-----------------------------------------------------------------|
-----------------------------------------------------------------|
-------_-----------------------------_---------------------------|
------/ \---^-----------------------/ \---^----------------ph----|
-*-*-8-7-0-3-5-*-*-***-***-*-3-0---8-7-0-3-5-*-----5-------2-----|
-0-0-----------0-0-000-000-0-3-0-------------0--6-----6--3----3--|

L
0:12                                                          0:17
------------------------------------------------------------------|
------------------------------------------------------------------|
-------_-----------------------------_------------ph-------ph-----|
------/ \---^-----------------------/ \---^----ph-12-ph-ph-10-ph--|
-*-*-8-7-0-3-5-*-*-----------3-0---8-7-0-3-5-*-11----11-8-----8---|
-0-0-----------0-0-----------3-0-------------0--------------------|
R
-----------------------------------------------------------------|
-----------------------------------------------------------------|
-------_-----------------------------_---------------------------|
------/ \---^-----------------------/ \---^----------------ph----|
-*-*-8-7-0-3-5-*-*-***-***-*-3-0---8-7-0-3-5-*-----5-------2-----|
-0-0-----------0-0-000-000-0-3-0-------------0--6-----6--3----3--|

L
0:17                                                          0:22
------------------------------------------------------------------|
------------------------------------------------------------------|
-------_-----------------------------_----------------------------|
------/ \---^-----------------------/ \---^-----------------------|
-*-*-8-7-0-3-5-*-*-----------3-0---8-7-0-3-5-*---6--5--3--5-------|
-0-0-----------0-0-----------3-0-------------0---6|-5|-3|-5|------|
R
-----------------------------------------------------------------|
-----------------------------------------------------------------|
-------_-----------------------------_---------------------------|
------/ \---^-----------------------/ \---^----------------------|
-*-*-8-7-0-3-5-*-*-***-***-*-3-0---8-7-0-3-5-*---6--5--3--5------|
-0-0-----------0-0-000-000-0-3-0-------------0---6|-5|-3|-5|-----|

L
0:22                                                          0:26
-------------------------------------------------------------------|
-------------------------------------------------------------------|
-------_---------5-----_---------7-----_----------8--8-8-8-8-8-8---|
------/ \---^----x----/ \---^----x----/ \---^-----x--x-x-x-x-x-x---|
-0-*-8-7-0-3-5-*-3---8-7-0-3-5-*-5---8-7-0-3-5-*--6--6-6-6-6-6-6---|
-0-0-----------0---------------0---------------0-------------------|
R
-------------------------------------------------------------------|
-------------------------------------------------------------------|
-------_---------------_---------------_---------------------------|
------/ \---^---------/ \---^---------/ \---^----------------------|
-0-*-8-7-0-3-5-*-3-*-8-7-0-3-5-*-5-*-8-7-0-3-5-*--6--6-6-6-6-6-6---|
-0-0-----------0-3-0-----------0-5-0-----------0--6--6-6-6-6-6-6---|


L
0:26                                                         0:30
-------------------------------------------------------------------|
-------------------------------------------------------------------|
-------_---------5-----_---------7-----_----------13--13-----------|
------/ \---^----x----/ \---^----x----/ \---^------x---x--ph-------|
-0-*-8-7-0-3-5-*-3---8-7-0-3-5-*-5---8-7-0-3-5-*--11|-11-11~~~~~~--|
-0-0-----------0---------------0---------------0-------------------|
R
-------------------------------------------------------------------|
-------------------------------------------------------------------|
-------_---------------_---------------_----------8--8--8--8-------|
------/ \---^---------/ \---^---------/ \---^-----6--6--6--6-------|
-0-*-8-7-0-3-5-*-3-*-8-7-0-3-5-*-5-*-8-7-0-3-5-*--6--6--6--6-------|
-0-0-----------0-3-0-----------0-5-0-----------0--6|-6|-6|-6|------|

L
0:30                                                           0:35
--------------------------------------------------------------------|
--------------------------------------------------------------------|
-------_------------------------------------------------------------|
------/ \-------7-8--7-5---5--7--5-----5/7\5--3--5--3--2--3\2-------|
-0-*-8-7-0--7-8----------8------------------------------------------|
-0-0----------------------------------------------------------------|
R
--------------------------------------------------------------------|
--------------------------------------------------------------------|
-------_------------------------------------------------------------|
------/ \----^------------------------------------------------------|
-0-*-8-7-0--3-5-*-3-*-***-***-*-5-*-***-***-*-8--8-8-8-8-8-8--------|
-0-0------------0-3-3-333-333-3-5-5-555-555-5-8--8-8-8-8-8-8--------|


L
0:35                                            0:40
----------------------------------------------------|
----------------------------------------------------|
-------_--------------------------------------------|
------/ \-------7-8--7-5---5--7--5~~5/6-6~~~~~------|
-0-*-8-7-0--7-8----------8--------------------------|
-0-0------------------------------------------------|
R
-----------------------------------------------------|
-----------------------------------------------------|
-------_---------------------------------------------|
------/ \-----------5--------------------------------|
-0-*-8-7-0--5--7--8---8-7-5--7-8---------------------|
-0-0-----------------------------5~~5/6-6~~~~~/--\---|


L
0:40                                             0:44
-----------------------------------------------------|
-----------------------------------------------------|
-----------------------------------------------------|
-----------------------------------------------------|
-*-*-***-*-*--*-*-*-***-***--------------------------|
-0-0-000-0-0--0-0-0-000-000--------------------------|
R
-----------------------------------------------------|
-----------------------------------------------------|
-----------------------------------------------------|
-----------------------------------------------------|
-----------------------------*-*-***-*-*---*-***-----|
-----------------------------0-0-000-0-0---0-000-----|

BOTH
0:44                                                        0:49
--------------------------------------------------|--------------|
--------------------------------------------------|--------------|
--------------------------------------------------|-----13---13--|
--------------------------------------------------|------x----x--|
-*-*-****-*-*---*-*-*-********-*-*-***-*-*--*-***-|-*---11---11--|
-0-0-0000-0-0---0-0-0-00000000-0-0-000-0-0--0-000-|-x------x-----|

0:49                                                 0:53
---------------------------------------------------------|
---------------------------------------------------------|
---------------------------------------------------------|
---------------------------------------------------------|
-*-*-****-*-*---*-*-*-********-*-*-***-*-*--*-*-*-*-*-*--|
-0-0-0000-0-0---0-0-0-00000000-0-0-000-0-0--0-0-0-0-0-0--|

0:53                                             0:58
-----------------------------------------------------|
-----------------------------------------------------|
-----------------------------------------------------|
-----------------------------------------------------|
-----------------------------------------------------|
/6----0-----6-----0-----/6-----0------6------0-------|

L
0:58                                            1:04
-----------------------------------------------------|
-----------------------------------------------------|
----------------------13-----13----------------------|
-6----------6----------x------x--0-------------------|
-6----0-----6----0----11--*--11\---------------------|
/6----0-----6----0--------0--------------------------|
R
-----------------------------------------------------|
-----------------------------------------------------|
----------------------7------7--H--------------------|
----------------------x------x--7-----------------*--|
----------------------5---*--5--------------------0--|
/6----0-----6-----0-------0-----------------------0--|

L
1:04                                                         1:08
------------------------------------------------------------------|
------------------------------------------------------------------|
-9-999-999-999-99-10-10-10-10-10-10-10-10-10-10-10-10-10-10-10-10-|
-7-777-777-777-77--8--8--8--8--8--8--8--8--8--8--8--8--8--8--8--8-|
-CLEAN-------------DIST-------------------------------------------|
------------------------------------------------------------------|
R
------------------------------------------------------------------|
------------------------------------------------------------------|
------------------10-10-10-10-10-10-10-10-10-10-10-10-10-10-10-10-|
-------------------8--8--8--8--8--8--8--8--8--8--8--8--8--8--8--8-|
-------------------8--8--8--8--8--8--8--8--8--8--8--8--8--8--8--8-|
-------------------8--8--8--8--8--8--8--8--8--8--8--8--8--8--8--8-|

1;08                         1:10
---------------------------------|
---------------------------------|
---9---10-9---9-----9---10-9-----|
-7---7------7-----7---7----------|
---------------------------------|
---------------------------------|

SOLO W/WAH +=TOE UP O=TOE DOWN
+
1;10                                    O     +      1:13
--------------------------------------------------------|
--------------------------------------------------------|
///--------///------------------------------------------|
-8----------7--------///-------///----------------------|
----------------------8--------10---------------\-------|
--------------------------------------------------------|
R
-------------------------------------------------|
-------------------------------------------------|
-10-10-10-10-10-10-10-10-10-10-10-10-10-10-10-10-|
--8--8--8--8--8--8--8--8--8--8--8--8--8--8--8--8-|
--8--8--8--8--8--8--8--8--8--8--8--8--8--8--8--8-|
--8--8--8--8--8--8--8--8--8--8--8--8--8--8--8--8-|

1:13                                                                     1:18
+                  +O+  +O+  +O+ +O+ +O+   +O+    +O+    +O+    +O+       +  
-----------------------------------------------------------------------------|
-------------------------------------10-----8------------10------8-----------|
--------------------3----5----7---7----------------9-------------------------|
-0000-2222-33-22-0--------------------------------------------------------10-|
-----------------------------------------------------------------------------|
-----------------------------------------------------------------------------|
R
---------------------------------------------------------------------------------|
---------------------------------------------------------------------------------|
-9-9-9-9-9-9-9-9-9-9-9-9-9-9-9-9-10-10-10-10-10-10-10-10-10-10-10-10-10-10-10-10-|
-7-7-7-7-7-7-7-7-7-7-7-7-7-7-7-7--8--8--8--8--8--8--8--8--8--8--8--8--8--8--8--8-|
-7-7-7-7-7-7-7-7-7-7-7-7-7-7-7-7--8--8--8--8--8--8--8--8--8--8--8--8--8--8--8--8-|
-7-7-7-7-7-7-7-7-7-7-7-7-7-7-7-7--8--8--8--8--8--8--8--8--8--8--8--8--8--8--8--8-|


1:18                                                                       1:22
+                GRAD INCREASE                     O     + GRAD INCREASE   O
--------------------------------------------------------///--------///----///---|
---------------------------------------------------------8---------10-----11----|
10-7-9-10-9-7-9-7-9-10-9-7-10-7-9-10-9-7-9-7-9-10-9-7---------------------------|
--------------------------------------------------------------------------------|
--------------------------------------------------------------------------------|
--------------------------------------------------------------------------------|
R
---------------------------------------------------------------------------------|
---------------------------------------------------------------------------------|
-9-9-9-9-9-9-9-9-9-9-9-9-9-9-9-9-10-10-10-10-10-10-10-10-10-10-10-10-10-10-10-10-|
-7-7-7-7-7-7-7-7-7-7-7-7-7-7-7-7--8--8--8--8--8--8--8--8--8--8--8--8--8--8--8--8-|
-7-7-7-7-7-7-7-7-7-7-7-7-7-7-7-7--8--8--8--8--8--8--8--8--8--8--8--8--8--8--8--8-|
-7-7-7-7-7-7-7-7-7-7-7-7-7-7-7-7--8--8--8--8--8--8--8--8--8--8--8--8--8--8--8--8-|


1:22                                                                 1:27
+                                      +O+O+        0    +O+O+O+
-------------------------------------------------------------------------|
-11--10------10------------------------------///---///--///--------------|
---------12------12-10-12-10-9-10-12-10-9\5---7----10----9--9--5---------|
-------------------------------------------------------------------------|
-------------------------------------------------------------------------|
-------------------------------------------------------------------------|
R
---------------------------------------------------------------------------------|
---------------------------------------------------------------------------------|
-9-9-9-9-9-9-9-9-9-9-9-9-9-9-9-9-10-10-10-10-10-10-10-10-10-10-10-10-10-10-10-10-|
-7-7-7-7-7-7-7-7-7-7-7-7-7-7-7-7--8--8--8--8--8--8--8--8--8--8--8--8--8--8--8--8-|
-7-7-7-7-7-7-7-7-7-7-7-7-7-7-7-7--8--8--8--8--8--8--8--8--8--8--8--8--8--8--8--8-|
-7-7-7-7-7-7-7-7-7-7-7-7-7-7-7-7--8--8--8--8--8--8--8--8--8--8--8--8--8--8--8--8-|


1:27                                                                 1:32
+                        +O+ +O+  +O+  +O+    +O+  +O+    +O+ +O+ +O+  +O+ 
----------------------------------------------------------------------------|
----------------------------------8----10-----10---11-----11/13---14---15---|
7-7-7-7-9-9-9-9-10-10-9-9-7--10---------------------------------------------|
----------------------------------------------------------------------------|
----------------------------------------------------------------------------|
----------------------------------------------------------------------------|
R
---------------------------------------------------------------------------------|
---------------------------------------------------------------------------------|
-9-9-9-9-9-9-9-9-9-9-9-9-9-9-9-9-10-10-10-10-10-10-10-10-10-10-10-10-10-10-10-10-|
-7-7-7-7-7-7-7-7-7-7-7-7-7-7-7-7--8--8--8--8--8--8--8--8--8--8--8--8--8--8--8--8-|
-7-7-7-7-7-7-7-7-7-7-7-7-7-7-7-7--8--8--8--8--8--8--8--8--8--8--8--8--8--8--8--8-|
-7-7-7-7-7-7-7-7-7-7-7-7-7-7-7-7--8--8--8--8--8--8--8--8--8--8--8--8--8--8--8--8-|


SOLO
                     +O++O+          +O+ +O+      +O+
1:32                                                   1:36
---------------------------------------------------^-------|
---------------------15--13-----------13--11-----10-11-10--|
-----------------------------------------------------------|
-----------------------------------------------------------|
-----------------------------------------------------------|
-----------------------------------------------------------|
L
-------------------------------------------------------|
--------_----------------------------------------------|
-------/ \---------------------------------------------|
------7-5-0--3/5-7-8-7-5---5-7-5--5-7-5---5------------|
-*-*---------------------8--------------8---8-7-8-7----|
-0-0---------------------------------------------------|
R
--------------------------------------------------------------|
--------------------------------------------------------------|
--------_-----------------------------------------------------|
-------/ \---------5------------***---***-*-*-***-*-----------|
-*-*--8-7-0--5-7-8---8-7-5-7-8--888-8-888-8-8-333-3-3-3-3-3---|
-0-0----------------------------888-8-888-8-8-333-3-3|3-3-3---|

S
1:36                                            1:41
-----------------------------------------------------|
--------10---10/11-----------------------------------|
-------------------------------10--------------------|
-----------------------------------------------------|
-----------------------------------------------------|
-----------------------------------------------------|
L
-------------------------------------------------------|
--------_----------------------------------------------|
-------/ \---------------------------------------------|
------7-5-0--3/5-7-8-7-5---5-7-5--5/7--7----8----------|
-*-*---------------------8-----------------------------|
-0-0---------------------------------------------------|
R
-------------------------------------------------------------------------|
-------------------------------------------------------------------------|
--------_----------------------------------------------------------------|
-------/ \---------5-----------------------------------------------------|
-*-*--8-7-0--5-7-8---8-7-5-7-8--8-8-8-8-8-8-8-8-10-10-10-10-10-10-10-10--|
-0-0----------------------------8-8-8-8-8-8-8-8-10-10-10-10-10-10-10-10--|


L
1:41                                                          1:46
--------------------------------------------------------------------|
-------_-----------------_----------------_-------------------------|
------/ \---------------/ \--------------/ \------------------------|
-----7-5-0--2-3-5------7-5-0--3-5-7-----7-5-0--3-5-8---7-8-7-5-7-5--|
-*-*---------------*-*--------------*-*----------------------------7|
-0-0---------------0-0--------------0-0-----------------------------|
R
-----------------------------------------------------|
-----------------------------------------------------|
-----------------------------------------------------|
-----------------------------------------------------|
-*-*---------------*-*--------------*-*--------------|
-0-0---------------0-0--------------0-0--------------|

L
1:46                                                                 1:51
---------------------------------------------------------------------------|
-------_-----------------_----------------_--------------------------------|
------/ \---------------/ \--------------/ \-------------------------------|
-----7-5-0--2-3-5------7-5-0--3-5-7-----7-5-0--3-5-8---7-7-7-7-5-5-5-5-----|
-*-*---------------*-*--------------*-*--------------------------------8-4-|
-0-0---------------0-0--------------0-0------------------------------------|
R
-----------------------------------------------------|
-----------------------------------------------------|
-----------------------------------------------------|
-----------------------------------------------------|
-*-*---------------*-*--------------*-*--------------|
-0-0---------------0-0--------------0-0--------------|

L
1:51                                                          1:56
--------------------------------------------------------------------|
-------_-----------------_----------------_-------------------------|
------/ \---------------/ \--------------/ \------------------------|
-----7-5-0--2-3-5------7-5-0--3-5-7-----7-5-0--3-5-8---7-8-7-5-7-5--|
-*-*---------------*-*--------------*-*----------------------------7|
-0-0---------------0-0--------------0-0-----------------------------|
R
------------------------------------------------------------------------|
------------------------------------------------------------------------|
-------_-----------------_----------------_-----------------------------|
------/ \---------------/ \--------------/ \----------------------------|
-*-*-8-7-0-3-5-7---*-*-8-7-0-5-7-8--*-*-8-7-0-5-7-10---8-10-8-7-8-7-----|
-0-0---------------0-0--------------0-0-----------------------------10--|

L
1:56                                                                     2:00
-----------------------------------------------------------------------------|
-------_-----------------_----------------_-----------------///--------------|
------/ \---------------/ \--------------/ \-----------///--10---///---------|
-----7-5-0--2-3-5------7-5-0--3-5-7-----7-5-0--3-5-8---7----------11---------|
-*-*---------------*-*--------------*-*--------------------------------------|
-0-0---------------0-0--------------0-0--------------------------------------|
R
------------------------------------------------------------------------|
------------------------------------------------------------///---------|
-------_-----------------_----------------_-----------///---10-----///--|
------/ \---------------/ \--------------/ \-----------7-----------11---|
-*-*-8-7-0-3-5-7---*-*-8-7-0-5-7-8--*-*-8-7-0-5-7-10--------------------|
-0-0---------------0-0--------------0-0---------------------------------|

MELODY
2:00                                                   2:10
-----------------------------------------------------------|
-13---------------------13--------------13-----------------|
------------10---9-----------10--9--10-----10--9-----------|
-----------------------------------------------------------|
-----------------------------------------------------------|
-----------------------------------------------------------|
CLEAN
------------------------------------------------------|
------------------------------------------------------|
-9---------10---------------9-10----------10----------|
-7----------8-------------7---------------8-----------|
-7----------8-----------7-----------------8-----------|
-7----------8-----------------------------8-----------|

M

2:10                                                           2:14
--------------------------------------------------------------------|
--13------10------13------10------13------10------13------10--------|
-----9-10----9-10----9-10----9-10----9-10----9-10----9-10----9-10---|
--------------------------------------------------------------------|
--------------------------------------------------------------------|
--------------------------------------------------------------------|
C
--------------------------------------------------------------------|
--------------------------------------------------------------------|
--9--9-9-9-9--9--9-9-9-9--9--9-9-10-10101010-10-10101010-10-1010----|
--7--7-7-7-7--7--7-7-7-7--7--7-7--8--8-8-8-8--8--8-8-8-8--8--8-8----|
--7--7-7-7-7--7--7-7-7-7--7--7-7--8--8-8-8-8--8--8-8-8-8--8--8-8----|
--7--7-7-7-7--7--7-7-7-7--7--7-7--8--8-8-8-8--8--8-8-8-8--8--8-8----|

M
2:14                                                           2:19
--------------------------------------------------------------------|
--13------10------13------10------13------10------13------10--------|
-----9-10----9-10----9-10----9-10----9-10----9-10----9-10----9-10---|
--------------------------------------------------------------------|
--------------------------------------------------------------------|
--------------------------------------------------------------------|
C
--------------------------------------------------------------------|
--------------------------------------------------------------------|
--9--9-9-9-9--9--9-9-9-9--9--9-9-10-10101010-10-10101010-10-1010----|
--7--7-7-7-7--7--7-7-7-7--7--7-7--8--8-8-8-8--8--8-8-8-8--8--8-8----|
--7--7-7-7-7--7--7-7-7-7--7--7-7--8--8-8-8-8--8--8-8-8-8--8--8-8----|
--7--7-7-7-7--7--7-7-7-7--7--7-7--8--8-8-8-8--8--8-8-8-8--8--8-8----|

M
2:19                                                          2:24
--------------------------------------------------------------------|
--13------10------13------10------13------10------13------10--------|
-----9-10----9-10----9-10----9-10----9-10----9-10----9-10----9-10---|
--------------------------------------------------------------------|
--------------------------------------------------------------------|
--------------------------------------------------------------------|
C
--------------------------------------------------------------------|
--------------------------------------------------------------------|
--9--9-9-9-9--9--9-9-9-9--9--9-9-10-10101010-10-10101010-10-1010----|
--7--7-7-7-7--7--7-7-7-7--7--7-7--8--8-8-8-8--8--8-8-8-8--8--8-8----|
--7--7-7-7-7--7--7-7-7-7--7--7-7--8--8-8-8-8--8--8-8-8-8--8--8-8----|
--7--7-7-7-7--7--7-7-7-7--7--7-7--8--8-8-8-8--8--8-8-8-8--8--8-8----|

M
2:24                                          END
-----------------------------------------------------|
-13----------------13--------------------------------|
-------10--9-------------10--9-slight bend-----------|
-----------------------------------------------------|
-----------------------------------------------------|
-----------------------------------------------------|
C
-----------------------------------------------------|
-----------------------------------------------------|
--10---10----9------10---10----9---------------------|
--8----8-----7------8----8-----7---------------------|
--8----8-----7------8----8-----7---------------------|
--8----8-----7------8----8-----7---------------------|

            
            
Suggest correction
Creating personal tab
Creating personal tab
You can edit any tab online and save it as your Personal.

You can edit, replace or remove any tab part or add personal notes – all changes will be seen only by you.

Personal tabs can be accessed anytime from any device, even offline.
Learn more »
Give kudos to tab author, rate the tab!
1 2 3 4 5
comments
print report bad tab
guest
You may want to rate the tab now too:
select rating
Wanna post a correction for this tab? Suggest correction