Oops, an error
Loading. Please wait.

Revelation tab

version 2
version 2

Whole song

450 views 1 this week
no commentswrite comment
1 2 3 4 5
x 3
add to favorites
×
Save as Personal and add changes to this tab that will be seen only by you. Learn more ›
×
You can save this tab as Personal to edit and correct it or add notes. All changes will be seen only by you. Learn more »
launch autoscroll
font size
0
reset
how to read this tab
guitar tuner
edit
Autoscroll
slow
fast
+/-
esc
set tempo
stop
THE AUTUMN OFFERING
REVELATIONS
C#-G#-C#-F#-A#-D#
*=PALM MUTE
)(=BEND/UNBEND

THE REVELATIONS OF THE UNSUNG ALBUM IS IN C#-G#-C#-F#-A#-D#
NOT C-G-C-F-A-D.THEY SWITCHED TO DROP C FOR EMBRACE THE GUTTER

TABBED BY-andherembrace

both guitars and solo with timeline


RYTHM
0:00                                           0:02
------------------------------------------4--------|
---------------------------------------------------|
---------------------------------------------------|
****-----------------------------------------------|
0000-4---------------------------------------------|
0000-4---------------------------------------------|
LEAD
---------------------------------------------------|
---------------------------------------------------|
----11-11-11-11-11-11-11-11-11-11-11-11-11-11-11-11|
-----9--9--9--9--9--9--9--9--9--9--9--9--9--9--9--9|
---------------------------------------------------|
---------------------------------------------------|

RYTHM
0:02                                           0:04
---------------------------------------------------|
----------7----------------------------------------|
----------------------6----------------------------|
---------------------------------------------------|
--------------------------------------*----*-------|
--------------------------------------0----0-------|
LEAD
---------------------------------------------------|
---------------------------------------------------|
-11-11-11-11-11-11-11-11-11-11-11-11-11-11-11-11---|
--9--9--9--9--9--9--9--9--9--9--9--9--9--9--9--9---|
---------------------------------------------------|
---------------------------------------------------|

RYTHM
0:04                                                       0:07
---------------------------------------------------------------|
---------------------------------------------------------------|
---------------------------------------------------------------|
---------------------------------------------------------------|
-7--------------------------2---------------------------*-*-*-*|
-7--------------------------2---------------------------0-0-0-0|
LEAD
---------------------------------------------------------------|
-10-10-10-10-10-10-10-10-10-10-9-9-9-9-9-9-9-9-9-9-9-9-9-9-9-9-|
--9--9--9--9--9--9--9--9--9--9-9-9-9-9-9-9-9-9-9-9-9-9-9-9-9-9-|
---------------------------------------------------------------|
---------------------------------------------------------------|
---------------------------------------------------------------|

RYTHM
0:07                                           0:09
------------------------------------------4--------|
---------------------------------------------------|
---------------------------------------------------|
---------------------------------------------------|
-4-------------------------------------------------|
-4-------------------------------------------------|
LEAD
---------------------------------------------------|
---------------------------------------------------|
-11-11-11-11-11-11-11-11-11-11-11-11-11-11-11-11---|
--9--9--9--9--9--9--9--9--9--9--9--9--9--9--9--9---|
---------------------------------------------------|
---------------------------------------------------|

RYTHM
0:09                                           0:10
---------------------------------------------------|
----------7----------------------------------------|
----------------------6----------------------------|
---------------------------------------------------|
--------------------------------------*----*-------|
--------------------------------------0----0-------|
LEAD
---------------------------------------------------|
---------------------------------------------------|
-11-11-11-11-11-11-11-11-11-11-11-11-11-11-11-11---|
--9--9--9--9--9--9--9--9--9--9--9--9--9--9--9--9---|
---------------------------------------------------|
---------------------------------------------------|

RYTHM
0:10                                               0:14
--------------------------------------------------------|
--------------------------------------------------------|
--------------------------------------------------------|
--------------------------------------------------------|
-7------------------------------------***-***-**-*-*----|
-7------------------------------------222-222-22-0-0----|
LEAD
-10-10-10-10-10-10-10-10-10-10-10-10--------------------|
--9--9--9--9--9--9--9--9--9--9--9--9--------------------|
--------------------------------------------------------|
--------------------------------------------------------|
--------------------------------------***-***-**-*-*----|
--------------------------------------222-222-22-0-0----|

RYTHM
0:14                                           0:15
------------------------------------------4--------|
---------------------------------------------------|
---------------------------------------------------|
---------------------------------------------------|
-4-------------------------------------------------|
-4-------------------------------------------------|
LEAD
---------------------------------------------------|
---------------------------------------------------|
-11-11-11-11-11-11-11-11-11-11-11-11-11-11-11-11---|
--9--9--9--9--9--9--9--9--9--9--9--9--9--9--9--9---|
---------------------------------------------------|
---------------------------------------------------|

RYTHM
0:15                                          0:17
---------------------------------------------------|
----------7----------------------------------------|
----------------------6----------------------------|
---------------------------------------------------|
-----------------------------------------*-*-*-*---|
-----------------------------------------0-0-0-0---|
LEAD
---------------------------------------------------|
---------------------------------------------------|
-11-11-11-11-11-11-11-11-11-11-11-11-11-11-11-11---|
--9--9--9--9--9--9--9--9--9--9--9--9--9--9--9--9---|
---------------------------------------------------|
---------------------------------------------------|

RYTHM
0:17                                                       0:20
---------------------------------------------------------------|
---------------------------------------------------------------|
---------------------------------------------------------------|
---------------------------------------------------------------|
-7--------------------------2---------------------------*-*-*-*|
-7--------------------------2---------------------------0-0-0-0|
LEAD
---------------------------------------------------------------|
-10-10-10-10-10-10-10-10-10-10-9-9-9-9-9-9-9-9-9-9-9-9-9-9-9-9-|
--9--9--9--9--9--9--9--9--9--9-9-9-9-9-9-9-9-9-9-9-9-9-9-9-9-9-|
---------------------------------------------------------------|
---------------------------------------------------------------|
---------------------------------------------------------------|

RYTHM
0:20                                            0:22
------------------------------------------4--------|
---------------------------------------------------|
---------------------------------------------------|
---------------------------------------------------|
-4-------------------------------------------------|
-4-------------------------------------------------|
LEAD
---------------------------------------------------|
---------------------------------------------------|
-11-11-11-11-11-11-11-11-11-11-11-11-11-11-11-11---|
--9--9--9--9--9--9--9--9--9--9--9--9--9--9--9--9---|
---------------------------------------------------|
---------------------------------------------------|

RYTHM
0:22                                          0:24
---------------------------------------------------|
----------7----------------------------------------|
----------------------6----------------------------|
---------------------------------------------------|
--------------------------------------*----*-------|
--------------------------------------0----0-------|
LEAD
---------------------------------------------------|
---------------------------------------------------|
-11-11-11-11-11-11-11-11-11-11-11-11-11-11-11-11---|
--9--9--9--9--9--9--9--9--9--9--9--9--9--9--9--9---|
---------------------------------------------------|
---------------------------------------------------|

RYTHM
0:24                                                0:26
--------------------------------------------------------|
--------------------------------------------------------|
--------------------------------------------------------|
--------------------------------------------------------|
-7------------------------------------***-***-*-4|------|
-7------------------------------------222-222-2-4|------|
LEAD
-10-10-10-10-10-10-10-10-10-10-10-10--------------------|
--9--9--9--9--9--9--9--9--9--9--9--9--------------------|
--------------------------------------------------------|
--------------------------------------------------------|
--------------------------------------***-***-*-4-------|
--------------------------------------222-222-2-4\|-----|

LEFT
0:27                                                     0:30
-------------------------------------------------------------|
----------------------------------_---------------_----------|
---------------------------------/ \-------------/ \--2------|
--6---7-----11---7---9---6------7-6-0-----6-----0-2-4---4-2--|
----*---9-*----*---*---*---\-0|-------7-9----2|--------------|
----0-----0----0---0---0-----0|--------------2|--------------|
RIGHT
-------------------------------------------------------------|
-------------------------------------------------------------|
-------------------------------------------------------------|
-------------------------------------------------------------|
------------------------------0---------------2--------------|
------------------------------0---------------2--------------|

L
0:31                                               0:35
-------------------------------------------------------|
----------------5--------------------------------------|
------6-4---4-6---6-4-7-4-6----------------4-6---------|
----------7----------------------7---7\6---4/6----7-7-7|
-4-*-------------------------0-*---*-----*--------7-7-7|
-4-4-------------------------0-0---0-----0-------------|
R
--------------------------------------------------------|
--------------------------------------------------------|
---------------6----------------------------------------|
-----7-6---6-7---7-6-9-6-7--------4---4\2---5-7---------|
-4-*-----9-------------------0-*----*-----*-5/7---2-2-2-|
-4-4-------------------------0-0----0-----0-------2-2-2-|

L
0:35                                                       0:40
---------------------------------------------------------------|
---------------------------------------_-----_-----------------|
-----4---6-----11------9--------------/ \---/ \--------^--2----|
-----------7-------12------11\------11-9-7-6-7-9------2-4---4-2|
-4-*---*-----*---*---*---*-----0-*----------------2-*----------|
-4-4---0-----0---0---0---0-----0-0----------------2-2----------|
R
-----------------------------------------------------------------|
--------------------------------------_--------------------------|
-------------------------------------/ \---------------^--2------|
-----6---7-----11--7---9---6\-------7-6-0-----6-------2-4---4-2--|
-4-*---*---9-*---*---*---*-----0-*--------7-9-----2-*------------|
-4-4---0-----0---0---0---0-----0-0----------------2-2------------|

L
0:40                                                   0:44
------------------------------------------------------------|
----------------5-------------------------------------------|
------6-4---4-6---6-4-7-4-6---------------------------------|
----------7----------------------7---7\6----/9-9-9--11-11-11|
-4-*-------------------------0-*---*-----*------------------|
-4-4-------------------------0-0---0-----0------------------|
R
----------------------------------------------------------|
----------------------------------------------------------|
---------------6------------------------------------------|
-----7-6---6-7---7-6-9-6-7--------4---4\2----7-7-7--------|
-4-*-----9-------------------0-*----*-----*--7-7-7--2-2-2-|
-4-4-------------------------0-0----0-----0---------2-2-2-|

L
0;44                                                           0:46
-------------------------------------------------------------------|
1414141414141414141414141414141412121212121212121010101010101010---|
-x-x-x-x-x-x-x-x-x-x-x-x-x-x-x-x-x-x-x-x-x-x-x-x-x-x-x-x-x-x-x-x---|
11111111111111111111111111111111-9-9-9-9-9-9-9-9-7-7-7-7-7-7-7-7---|
-------------------------------------------------------------------|
-------------------------------------------------------------------|
R
--------------------------------------------------------------------|
--------------------------------------------------------------------|
--------------------------------------------------------------------|
--------------------------------------------------------------------|
---------7-7-7-7-5-5-5-5-4-4-4-4---------4-4-4-4-2-2-2-2-0-0-0-0----|
-4-4-4-4-------------------------0-0-0-0----------------------------|

L
0:46                                                              0:48
-----------------------------------------------------------------------|
-7-7-9-9-10-10-9-9-9-9-9-9---------------------------------------------|
-x-x-x-x--x--x-x-x-x-x-x-x-9-9-9-9-9-9-9-9-9-9-9-9-9-9-9-9-9-9-9-9-----|
-4-4-6-6--7--7-6-6-6-6-6-6-x-x-x-x-x-x-x-x-x-x-x-x-x-x-x-x-x-x-x-x-----|
---------------------------7-7-7-7-7-7-7-7-7-7-7-7-7-7-7-7-7-7-7-7-----|
-----------------------------------------------------------------------|
R
-----------------------------------------------------------------|
-----------------------------------------------------------------|
-----------------------------------------------------------------|
-----------------------------------------------------------------|
---------4-4-4-4-5-5-5-5-7-7-7-7---------4-4-4-4-2-2-2-2-5-5-5-5-|
-7-7-7-7-------------------------2-2-2-2-------------------------|

L
0:48                                                      0:53
----------------------_----------------------------------------|
---------------------/ \---------_-----------------------------|
---------------/6---4-6-4-------/ \------------------6---------|
-----6---7-6--------------7----6-7-6--7--6-----------7---------|
-*-*---*-----*-----------------------------9--8--8-------------|
-4-4---4-----0-------------------------------------------------|
R
--------------------------------------------------------------------|
--------------------------------------------------------------------|
--------------------------------------------------------------------|
--------------------------------------------------------------------|
-----777755554444----444422220000----444455557777----444422225555---|
4444-------------0000------------7777------------2222---------------|


cleaN SECT.
0:53                                                            1:02
--------------------------------------------------------------4---|
------------------------------------------2---3--2------------5---|
---6-------------6|-6----4------------2------------2-------6--6---|
-----7--------------7--6---6--------4---4----------------7--------|
-----------------------------7------------------------------------|
-7-------0-6-7-7-----------------4--------------------7-----------|

L [BACKGROUND]
1:02                                                                           1:19
-----------------------------------------------------------------------------------|
----------------///---///----------------------------------------------------------|
-----------------2-----1---///-///----------------------4-6------7-----6-----------|
----------------------------2---4--------7-4---7-4--7-4------4-7---4-7-----7-4--7-4|
-0------2------4-------------------4~-2~-------------------------------------------|
-0------2------4-------------------------------------------------------------------|
R
-----------------------------------------------------------------------------------|
-----------------------------------------------------------------------------------|
-----------------------------------------------------------------------------------|
-----------------------------------------------------------------------------------|
-0------2-------4--------0------2-------4--------0-------2-------4--------0------2-|
-0------2-------4--------0------2-------4--------0-------2-------4--------0------2-|

L
1:19                                                             1:24
---------------------------------)(------------------------------------|
---------------------------15--12-----------------------)(-------------|
---------------------------16--14---------------4~-2-4-4---2-----------|
----^-----^-----^-----^------------------^-------------------4-----2--4|
-*-2-4-*-2-4-*-2-4-*-2-4-*----------4-*-2-4-*-*------------------------|
-0-2-4-0-2-4-0-2-4-0-2-4-0----------4-0-2-4-4-4------------------------|
R
-------------------------------------------------------------------------|
-------------------------------)(-----------------------)(---------------|
---------------------------8--5-----------------4~-2-4-4---2-------------|
----^-----^-----^-----^----9--7----------^-------------------4-----6--7--|
-*-2-4-*-2-4-*-2-4-*-2-4-*----------4-*-2-4-*-*--------------------------|
-0-2-4-0-2-4-0-2-4-0-2-4-0----------4-0-2-4-4-4--------------------------|


L
1:24                                                   1:28
---------------------------)(-------------------------------|
---------------------15--12---------------------------------|
---------------------16--14---------------------------------|
------------------------------------^---------^-----^-------|
-*-2-4-*-2-4-*-2-4-*-----------4-*-2-4-*-4-*-2-4-*-2-4-*----|
-0-2-4-0-2-4-0-2-4-0-----------4-0-2-4-0-4-0-2-4-0-2-4-0----|
R
------------------------------------------------------------|
--------------------------)(--------------------------------|
----------------------8--5----------------------------------|
----------------------9--7----------^---------^-----^-------|
-*-2-4-*-2-4-*-2-4-*-----------4-*-2-4-*-4-*-2-4-*-2-4-*----|
-0-2-4-0-2-4-0-2-4-0-----------4-0-2-4-0-4-0-2-4-0-2-4-0----|


BOTH
1:28                                                         1:33
-----------------------------------------------------------------|
-----_---------------_---------------_---------------_-----------|
----/ \----_--------/ \----_--------/ \----_--------/ \----_-----|
---9-7-0--/ \------9-7-0--/ \------9-7-0--/ \------9-7-0--/ \----|
0--------9-7-0--2--------9-7-0--4--------9-7-0--2--------9-7-0---|
0|--------------2|--------------4|--------------2|---------------|

L
1:33                                                                 1:38
-------------------------------------------------------------------------|
---------------------------_------------------------------------__-------|
--------------------------/ \----------------------------------/  \------|
---0-2-0-4-0-6-0-7-0-9-0-7-9-7-6-----0-6-0-7-0-9-0-11-0-12-0-11-12-11-9--|
-0--------------------------------2--------------------------------------|
-0|-------------------------------2|-------------------------------------|
R
-------------------------------------------------------------------------|
-------------------------------------------------------------_-----------|
------------------------------------------------------------/ \----------|
-------------------------------------0-2-0-4-0-6-0-7-0-9-0-7-9-7-6-------|
-0--------------------------------2--------------------------------------|
-0--------------------------------2|-------------------------------------|


L
1:38                                    1:41
--------------------------------------------|
---------------------------------------5----|
--------------------^-----^-----7-6--4------|
-----^-----^----7--6-7---6-7----------------|
-4--2-4-*-2-4-*--------*-----*--------------|
-4--2-4-0-2-4-0--------0-----0--------------|
R
-------------------------------------------|
-------------------------------------------|
--------------------^-----^----------4-6---|
-----^-----^----4--2-4---2-4----7-6--------|
-4--2-4-*-2-4-*--------*-----*-------------|
-4--2-4-0-2-4-0--------0-----0-------------|


L
1:41                                                       1:49
-----------------------------------------------------------------|
------------------7----------------5-----------------------------|
-----------------------------------------------------------------|
----------------------9-----------------7------------------------|
-9-----9\7-7--------------7\5-5-------------5\2-2----2/4-4---ps\-|
-----------------------------------------------------------------|
R
------------------------------------------------------------------|
------------------------------------------------------------------|
------------------------------------------------------------------|
------------------------------------------------------------------|
-0---------7---------------7-9---------------9-2------4-----------|
-0---------7---------------7/9---------------9\2------4------ps\--|

L
1:49                                                      1:54
---------------------------------------------------------------|
---------------------------------------_-----_-----------------|
-----4---6-----11------9--------------/ \---/ \--------^--2----|
-----------7-------12------11\------11-9-7-6-7-9------2-4---4-2|
-4-*---*-----*---*---*---*-----0-*----------------2-*----------|
-4-4---0-----0---0---0---0-----0-0----------------2-2----------|
R
-----------------------------------------------------------------|
--------------------------------------_--------------------------|
-------------------------------------/ \---------------^--2------|
-----6---7-----11--7---9---6\-------7-6-0-----6-------2-4---4-2--|
-4-*---*---9-*---*---*---*-----0-*--------7-9-----2-*------------|
-4-4---0-----0---0---0---0-----0-0----------------2-2------------|


L
1:54                                                       1:58
----------------------------------------------------------------|
----------------5-----------------------------------------------|
------6-4---4-6---6-4-7-4-6-------------------------------------|
----------7-----------------------7-----7\6-----/9-9---11-11-11-|
-4-*-------------------------0-**---**-------*------------------|
-4-4-------------------------0-00---00-------0------------------|
R
------------------------------------------------------------|
------------------------------------------------------------|
---------------6--------------------------------------------|
-----7-6---6-7---7-6-9-6-7--------4-----4\2----7-7-7--------|
-4-*-----9-------------------0-**---**------*--7-7-7--2-2-2-|
-4-4-------------------------0-00---00------0--7-7-7--2-2-2-|


L
1:58                                                      2:03
---------------------------------------------------------------|
---------------------------------------_-----_-----------------|
-----4---6-----11------9--------------/ \---/ \--------^--2----|
-----------7-------12------11\------11-9-7-6-7-9------2-4---4-2|
-4-*---*-----*---*---*---*-----0-*----------------2-*----------|
-4-4---0-----0---0---0---0-----0-0----------------2-2----------|
R
-----------------------------------------------------------------|
--------------------------------------_--------------------------|
-------------------------------------/ \---------------^--2------|
-----6---7-----11--7---9---6\-------7-6-0-----6-------2-4---4-2--|
-4-*---*---9-*---*---*---*-----0-*--------7-9-----2-*------------|
-4-4---0-----0---0---0---0-----0-0----------------2-2------------|


L
2:03                                                     2:08
--------------------------------------------------------------|
----------------5----------------------------7-9--------------|
------6-4---4-6---6-4-7-4-6------------------x-x-----9--99----|
----------7-----------------------7-**-7\6---4/6-----x--xx----|
-4-*-------------------------0-**---00-----*---------7--77----|
-4-4-------------------------0-00----------0------------------|
R
------------------------------------------------------------|
------------------------------------------------------------|
---------------6--------------------------------------------|
-----7-6---6-7---7-6-9-6-7--------4-**--4\2----7-7-7--------|
-4-*-----9-------------------0-**---00------*--7-7-7--2-2-2-|
-4-4-------------------------0-00-----------0---------2-2-2-|


L
2:08                                                                2:16
------------------------------------------------------------------------|
------------------------------------------------------------------------|
-11---11-13--13----13-13--13-14-14---14---14-14-14-16-16----16-18-------|
-x-----x--x---x----x--x---x--x---x----x----x--x--x--x--x-----x--x-------|
-9-----9/11--11----11-11-11/-12-12---12---12-12-12/14-14----14/16---ps\-|
------------------------------------------------------------------------|
R
---------------------------------------------------------------------|
---------------------------------------------------------------------|
---------------------------------------------------------------------|
---------------------------------------------------------------------|
-0-----0-2-2------2---2-2-2-4-------------------6-----------------7--|
-0-----0/2-2------2---2-2-2/4-------------------6-----------------7--|


L
2:16                                                                 2:20
-------------------------------------------------------------------------|
-----------___--------------------------------___------------------------|
----------/   \------------------------------/   \-----------------------|
-----7---6-7-6-0-----------4---6--------7---6-7-6-0--9---7---6-----------|
-0-*---*---------*-5-*-7-*---*---*--2-*---*--------*---*---*---*-5-*-----|
-0-0---0---------0---0---0---0---0--2-2---0--------0---0---0---0---0-----|
R
------------------------------------------------------------------------------|
-------------___---------------------------------____-------------------------|
------------/   \-------------------------------/    \------------------------|
-----11---9-11-9-0-----------------9-------11--9-11-9-0--12---11---9----------|
-0-*----*---------*-9-*-11-*-12-*---*-2-*----*---------*----*----*---*-11-*---|
-0-0----0---------0---0----0----0---0-2-2----0---------0----0----0---0----0---|


BOTH
2:20                                                          2:25
------------------------------------------------------------------|
------------------------------------------------------------------|
------------------------------------------------------------------|
-----^---------------^---------------^---------------^------------|
-4--2-4-*-*-*-*--4--2-4-*-*-*-*--4--2-4-*-*-*-*--4--2-4-*-*-*-*---|
-4--2-4-0-0-0-0--4--2-4-0-0-0-0--4--2-4-0-0-0-0--4--2-4-0-0-0-0---|

L
2:25                                                                2:30
-------------------------------------------------------------------------|
-----------__---------------------------------__-------------------------|
----------/  \-------------------------------/  \------------------------|
-----7---6-7-60------------4---6--------7---6-7-60---9---7---6-----------|
-0-*---*---------*-5-*-7-*---*---*--2-*---*--------*---*---*---*-5-*-----|
-0-0---0---------0---0---0---0---0--2-2---0--------0---0---0---0---0-----|
R
-----------------------------------------------------------------------------|
-------------__----------------------------------___-------------------------|
------------/  \--------------------------------/   \------------------------|
-----11---9-11-90-----------------9-------11---9-11-90---12---11---9---------|
-0-*----*---------*-9-*-11-*-12-*---*-2-*----*---------*----*----*---*-11-*--|
-0-0----0---------0---0----0----0---0-2-2----0---------0----0----0---0----0--|


BOTH
2:30                                                           2:35
------------------------------------------------------------------|
------------------------------------------------------------------|
------------------------------------------------------------------|
-----^---------------^---------------^---------------^------------|
-4--2-4-*-*-*-*--4--2-4-*-*-*-*--4--2-4-*-*-*-*--4--2-4-*-*-*-*---|
-4--2-4-0-0-0-0--4--2-4-0-0-0-0--4--2-4-0-0-0-0--4--2-4-0-0-0-0---|

L
2:35                                                                      2:39
------------------------------------------------------------------------------|
------------------------------------------------------------------------------|
------------------------------------------------------------------------------|
---7777-6666-7777-----------4444-6666------7777-6666-7777-9999-7777-6666------|
-0----------------5555-7777-----------7777-------------------------------7777-|
-0|---------------------------------------------------------------------------|
R
-------------------------------------------------------------------------------|
-------------------------------------------------------------------------------|
---///--///--///-----------------///--------///-///--///-///---///-///---------|
----11---9----11-///--///----///--9----///--11---9----11--12----11--9----///---|
-0----------------9----11----12---------7---------------------------------11---|
-0|----------------------------------------------------------------------------|


L
2:39                           2:41
----------------------------------|
----------------------------------|
----------------------------------|
-/4--4-4-4--7-6-4------------4-6--|
------------------7--7-7-7-7------|
----------------------------------|
R
-----------------------------------|
-----------------------------------|
-----------------------------------|
-/7--7-7-7--11-9-7-6--6-6-6-6/7-9--|
-----------------------------------|
-----------------------------------|


L
2:41                                                               2:46
------------------------------------------------------------------------|
----------------------------_------------------------------------__-----|
---------------------------/ \----------------------------------/  \----|
----0-2-0-4-0-6-0-7-0-9-0-7-9-7-6----0-6-0-7-0-9-0-11-0-12-0-11-12-11-9-|
-0--------------------------------2-------------------------------------|
-0|-------------------------------2|------------------------------------|
R
-------------------------------------------------------------------------|
-------------------------------------------------------------_-----------|
------------------------------------------------------------/ \----------|
-------------------------------------0-2-0-4-0-6-0-7-0-9-0-7-9-7-6-------|
-0--------------------------------2--------------------------------------|
-0--------------------------------2|-------------------------------------|

L
2:46                                                                  2:51
---------------------------------------------------------------------------|
------------------------------__-------------------------------------------|
-----------------------------/  \------------------------------------------|
---0-6-0-7-0-9-0-11-0-12-0-11-12-11-9-----0-6-0-7-0-9-0-11-9-7-9-7----7-6--|
-4--------------------------------------2--------------------------11------|
-4|-------------------------------------2|---------------------------------|
R
------------------------------------------------------------------------|
----------------------------_-------------------------------------------|
---------------------------/ \------------------------------------------|
----0-2-0-4-0-6-0-7-0-9-0-7-9-7-6---------0-2-0-4-0-6-0-7-6-4-6-4---4-6-|
-4--------------------------------------2-------------------------7-----|
-4|-------------------------------------2|------------------------------|


L
2:51                                                 3:00
----------------------------------------------------------|
----------------------------------------------------------|
----------------------/6---6\4----------------------------|
-/4----6--7--7/9\7-6------------7--6--6/7\6---------------|
--------------------------------------------7------4------|
---------------------------------------------------4\-----|
R
--------------------------------------------------------|
--------------------------------------------------------|
--------------------------------------------------------|
--------------------------------------------------------|
-0-------------7-------------9------------2--------4----|
-0-------------7-------------9------------2--------4\---|



CLEAN SECT
BAR DOWN 7TH WITH INDEX,RING FINGER ON 9TH, PINKY ON 11TH
REPEATS 4 TIMES
3:00                                                             3:31
---------------------------------------------------------------------|
-----------7-----------------9---------------------------------------|
------7------7----------7------7----------9---9---------9--------7---|
---11---11-----11----11---11-----11-----7-------7-----9---9----7---7-|
-9---------------9-7----------------7-5-----5-----5/7-------11-------|
---------------------------------------------------------------------|

MELODY
3:31                                                               3:37
--------------9--------9---------------------9-------------------------|
--------9--------------------10-----12---------------12--------10------|
--11-------------------------------------------------------------------|
-----------------------------------------------------------------------|
-----------------------------------------------------------------------|
-----------------------------------------------------------------------|
RYTHM
-------------------------------------------------------------------------|
-5---------5---------5-5-5---------5---------5---9-------9-------9-------|
-6-*-*-*-*-6-*-*-*-*-6-6-6---------6---------6---9-------9-------9-------|
-4-4-4-4-4-4-4-4-4-4-4-4-4-*-*-*-*-4-*-*-*-*-4-0-5-*-*-*-5-*-*-*-5-*-----|
---------------------------7-7-7-7---7-7-7-7---0---5-5-5---5-5-5---5-----|
-------------------------------------------------------------------------|

MELODY
3:37                                        3:38
-9-------------------------------------------------------|
--------12------10---------------9------12---------------|
-------------------------11------------------------------|
---------------------------------------------------------|
---------------------------------------------------------|
---------------------------------------------------------|
RYTHM
--------------------------------------------------------|
--------------------------------------------------------|
-9------9---9-----------13---13---13--------------------|
-x------x---x------------x----x----x--------------------|
/7------7---7-----/-----11---11---11--------------------|
--------------------------------------------------------|

MELODY
3:39                                                                3:43
--------------9--------9---------------------9--------------------------|
--------9--------------------10-----12---------------12--------10-------|
--11--------------------------------------------------------------------|
------------------------------------------------------------------------|
------------------------------------------------------------------------|
------------------------------------------------------------------------|
RYTHM
-------------------------------------------------------------------------|
-5---------5---------5-5-5---------5---------5---9-------9-------9-------|
-6-*-*-*-*-6-*-*-*-*-6-6-6---------6---------6---9-------9-------9-------|
-4-4-4-4-4-4-4-4-4-4-4-4-4-*-*-*-*-4-*-*-*-*-4-0-5-*-*-*-5-*-*-*-5-*-----|
---------------------------7-7-7-7---7-7-7-7---0---5-5-5---5-5-5---5-----|
-------------------------------------------------------------------------|

MELODY
3:43                                               3:45
------------------9-------------------------------------|
-9----10----12---------12----10-----9-----10------------|
--------------------------------------------------------|
--------------------------------------------------------|
--------------------------------------------------------|
--------------------------------------------------------|
RYTHM
-------------------------------------------------------|
------------------------------ps-----------------------|
--------------------------------\----------------------|
-----------6-----7----6----------\---------------------|
-7----9------------------------------------------------|
-------------------------------------------------------|

MELODY
3:45                                                                         3:58

------9-9-------9-------9----------------------9-9-------9-------9---------------|
----9-----10-12---12-10---12-10----9--12-----9-----10-12---12-10---12-10----9-12-|
-11-----------------------------11--------11-----------------------------11------|
---------------------------------------------------------------------------------|
---------------------------------------------------------------------------------|
---------------------------------------------------------------------------------|
R
-----------------------------------------------------------------------------------|
-----------------------------------------------------------------------------------|
------------------------6----------------------------------------6-----------------|
-*****--***--*----*-*-*----9--7-----6--9----------------------------9--7-----6--9--|
-44444--222--2-2--0-0-0----------9--------44444--222--2-2--0-0-0----------9--------|
-44444--222--2-2--0-0-0-------------------44444--222--2-2--0-0-0-------------------|

MELODY
3:58                                                                        4:11
M
------9-9-------9-------9----------------------9-9-------9-------9----------------|
----9-----10-12---12-10---12-10----9--12-----9-----10-12---12-10---12-10----9-12-9|
-11-----------------------------11--------11-----------------------------11-------|
----------------------------------------------------------------------------------|
----------------------------------------------------------------------------------|
----------------------------------------------------------------------------------|
R
-----------------------------------------------------------------------------------|
-----------------------------------------------------------------------------------|
------------------------6----------------------------------------6-----------------|
-*****--***--*----*-*-*----9--7-----6--9----------------------------9--7----6--9--6|
-44444--222--2-2--0-0-0----------9--------44444--222--2-2--0-0-0----------9--------|
-44444--222--2-2--0-0-0-------------------44444--222--2-2--0-0-0-------------------|

SOLO
4:11                                                4:21
---------------------------_____------------------------|
--------------------------/     \--------)(-------------|
11------13---14--14-16--14-13-14-13---18-----16--18-----|
-x-------x----x---x--x---x--x--x--x----x------x---x-----|
-9---/--11---12--12/14--12/11-12\11-/-16-----14--16-----|
--------------------------------------------------------|
R
--------------------------------------------------------|
--------------------------------------------------------|
--------------------------------------------------------|
--------------------------------------------------------|
-0----------------2---------------------------4---------|
-0----------------2---------------------------4---------|

SOLO
4:21                                               4:23
-------------------------------------------------------|
-------------------------------------------------------|
------------------)-(-----------14------)-(------------|
-------14-------16----~~--14-16----16-14----~~---------|
-14-16----16-14----------------------------------------|
-------------------------------------------------------|
R
--------------------------------------------------------|
--------------------------------------------------------|
--------------------------------------------------------|
--------------------------------------------------------|
-----still ringing--------------------------------------|
-[4]----------------------------------------------------|

SOLO
4;23                                                           4:27

-14-17-14-----------------------------------------------------------|
----------17-14------)-(--------------------------------------------|
----------------14-16----14---------)(---------14-------------------|
----------------------------16-14-16-----14-16----16-14---)---------|
--------------------------------------------------------14----------|
--------------------------------------------------------------------|
R
--------------------------------------------------------|
--------------------------------------------------------|
--------------------------------------------------------|
--------------------------------------------------------|
-2------------------------------------------------------|
-2------------------------------------------------------|

SOLO
4:27                                                                4:41
--------------------------------------------------------------------------|
--------------------------------------------------------------------------|
---)----(----------)----(-------------)----(------------)---(-------------|
-11--------------11-----------------11------------9---11------------------|
-----------12--------------11---12------------12---------------11-9-11-12-|
--------------------------------------------------------------------------|
R
-------------------------------------------------------------------------|
-------------------------------------------------------------------------|
-------------------------------------------------------------------------|
-------------------------------------------------------------------------|
-0-----------------2------------------4----------------2-----------------|
-0-----------------2------------------4----------------2-----------------|

SOLO
4:41                                         END

--------------------------------------------------|
--------------------------------------------------|
---)----(-------------)----(----------------------|
-11------------9----11----------)-----------------|
-----------12-----------------11--------4---------|
----------------------------------------4---------|
R
--------------------------------------------------------|
--------------------------------------------------------|
--------------------------------------------------------|
-------------------------------*------------------------|
-0--------------------2--------2--------4---------------|
-0--------------------2--------2--------4---------------|

            
            
Suggest correction
Creating personal tab
Creating personal tab
You can edit any tab online and save it as your Personal.

You can edit, replace or remove any tab part or add personal notes – all changes will be seen only by you.

Personal tabs can be accessed anytime from any device, even offline.
Learn more »
Give kudos to tab author, rate the tab!
1 2 3 4 5
comments
print report bad tab
guest
You may want to rate the tab now too:
select rating
Wanna post a correction for this tab? Suggest correction