Oops, an error
Loading. Please wait.

Shadows Of Betrayal tab

version 1
version 1

Whole song

105 views 1 this week
no commentswrite comment
1 2 3 4 5
2 more votes to show rating
add to favorites
×
Save as Personal and add changes to this tab that will be seen only by you. Learn more ›
×
You can save this tab as Personal to edit and correct it or add notes. All changes will be seen only by you. Learn more »
launch autoscroll
font size
0
reset
how to read this tab
guitar tuner
edit
Autoscroll
slow
fast
+/-
esc
set tempo
stop
THE AUTUMN OFFERING
SHADOWS OF BETRAYAL
C#-G#-C#-F#-A#-D#
*=PALM MUTE

TABBED BY andherembrace

                                                                     0:20
GT.1
--------------------------------------------------------------------------|
--------------------------------------------------------------------------|
-3-----3--3-----3--3------3--3-----3--3-----3--3-----3--3------3--3-----3-|
-1-----1--1-----1--1------1--1-----1--1-----1--1-----1--1------1--1-----1-|
-1-----1--1-----1--1------1--1-----1--1-----1--1-----1--1------1--1-----1-|
--------------------------------------------------------------------------|
GT.2
-------------------------------------------------------------------------|
-------------------------------------------------------------------------|
-----------------------------------^-------------------------------------|
-1-----1--2----2-6-4-----4-1-2----1-2-1-----1--2----2/6-4-----4\1-2----1-|
-1-----1/-2----2/6-4-----4\1-2----1-2-1-----1/-2----2/6-4-----4\1-2----1-|
-------------------------------------------------------------------------|


0:20
LET RING
-------_---------_---------_---------_----------_---------_--------2-------1------|
------/ \--4----/ \-------/ \--4----/ \--------/ \--4----/ \-----4---4---3---3----|
---3-3-4-3---3-3-4-3---3-3-4-3---3-3-4-3----3-3-4-3---3-3-4-3--4-------3----------|
-1-------------------4--------------------6---------------------------------------|
----------------------------------------------------------------------------------|
----------------------------------------------------------------------------------|

0:29
-------_---------_---------_---------_----------_---------_--------2-------1------|
------/ \--4----/ \-------/ \--4----/ \--------/ \--4----/ \-----4---4---3---3----|
---3-3-4-3---3-3-4-3---3-3-4-3---3-3-4-3----3-3-4-3---3-3-4-3--4-------3----------|
-1-------------------4--------------------6---------------------------------------|
----------------------------------------------------------------------------------|
----------------------------------------------------------------------------------|
0:38
-------_---------_---------_---------_----------_---------_--------2-------1------|
------/ \--4----/ \-------/ \--4----/ \--------/ \--4----/ \-----4---4---3---3----|
---3-3-4-3---3-3-4-3---3-3-4-3---3-3-4-3----3-3-4-3---3-3-4-3--4-------3----------|
-1-------------------4--------------------6---------------------------------------|
----------------------------------------------------------------------------------|
----------------------------------------------------------------------------------|

0:47
-------_---------_---------_---------_----------_---------_--------2-------1------|
------/ \--4----/ \-------/ \--4----/ \--------/ \--4----/ \-----4---4---3---3----|
---3-3-4-3---3-3-4-3---3-3-4-3---3-3-4-3----3-3-4-3---3-3-4-3--4-------3----------|
-1-------------------4--------------------6---------------------------------------|
----------------------------------------------------------------------------------|
----------------------------------------------------------------------------------|


0:59
B
------------------------------------------------|
------------------------------------------------|
------------------------------------------------|
------------------------------------------------|
-11111-----11111-----11111-----11111-----PS\----|
-11111-----11111-----11111-----11111--V----\----|

1:08
GT.1
---------------------------------------------------------------------------------|
---------------------------------------------------------------------------------|
---------------------------------------------------------------------------------|
---^----^----^----^----^----^----^----^----^----^----^----^----^----^----^----^--|
-13-6-13-6-13-6-13-6-13-6-13-6-13-6-13-6-13-6-13-6-13-6-13-6-13-6-13-6-13-6-13-6-|
---------------------------------------------------------------------------------|
GT.2
---------------------------------------------------------------------------------|
---------------------------------------------------------------------------------|
-----_---------_---------_---------_---------_---------_---------_---------_-----|
----/ \-------/ \-------/ \-------/ \-------/ \-------/ \-------/ \-------/ \----|
--13-9-6----13-9-6----13-9-6----13-9-6----13-9-6----13-9-6----13-9-6----13-9-6---|
---------------------------------------------------------------------------------|
RYTHM
----------------------------------|
----------------------------------|
----------------------------------|
----------------------------------|
-********************************-|
-11111111111111111111111111111111-|



1:10
GT.1
---------------------------------------------------------------------------------|
---------------------------------------------------------------------------------|
---------------------------------------------------------------------------------|
---^----^----^----^----^----^----^----^----^----^----^----^----^----^----^----^--|
-13-5-13-5-13-5-13-5-13-5-13-5-13-5-13-5-14-8-14-8-14-8-14-8-13-5-13-5-13-5-13-5-|
---------------------------------------------------------------------------------|
GT.2
---------------------------------------------------------------------------------|
---------------------------------------------------------------------------------|
-----_---------_---------_---------_---------_---------_---------_---------_-----|
----/ \-------/ \-------/ \-------/ \-------/ \-------/ \-------/ \-------/ \----|
--13-8-5----13-8-5----13-8-5----13-8-5----13-8-5----13-8-5----13-8-5----13-8-5---|
---------------------------------------------------------------------------------|
RYTHM
----------------------------------|
----------------------------------|
----------------------------------|
----------------------------------|
-********************************-|
-00000000000000000000000000000000-|


1:12
GT.1
---------------------------------------------------------------------------------|
---------------------------------------------------------------------------------|
---------------------------------------------------------------------------------|
---^----^----^----^----^----^----^----^----^----^----^----^----^----^----^----^--|
-13-6-13-6-13-6-13-6-13-6-13-6-13-6-13-6-13-6-13-6-13-6-13-6-13-6-13-6-13-6-13-6-|
---------------------------------------------------------------------------------|
GT.2
---------------------------------------------------------------------------------|
---------------------------------------------------------------------------------|
-----_---------_---------_---------_---------_---------_---------_---------_-----|
----/ \-------/ \-------/ \-------/ \-------/ \-------/ \-------/ \-------/ \----|
--13-9-6----13-9-6----13-9-6----13-9-6----13-9-6----13-9-6----13-9-6----13-9-6---|
---------------------------------------------------------------------------------|
RYTHM
----------------------------------|
----------------------------------|
----------------------------------|
----------------------------------|
-********************************-|
-11111111111111111111111111111111-|



1:14
GT.1
---------------------------------------------------------------------------------|
---------------------------------------------------------------------------------|
---------------------------------------------------------------------------------|
---^----^----^----^----^----^----^----^----^----^----^----^----^----^----^----^--|
-13-5-13-5-13-5-13-5-13-5-13-5-13-5-13-5-14-8-14-8-14-8-14-8-13-5-13-5-13-5-13-5-|
---------------------------------------------------------------------------------|
GT.2
---------------------------------------------------------------------------------|
---------------------------------------------------------------------------------|
-----_---------_---------_---------_---------_---------_---------_---------_-----|
----/ \-------/ \-------/ \-------/ \-------/ \-------/ \-------/ \-------/ \----|
--13-8-5----13-8-5----13-8-5----13-8-5----13-8-5----13-8-5----13-8-5----13-8-5---|
---------------------------------------------------------------------------------|
RYTHM
----------------------------------|
----------------------------------|
----------------------------------|
----------------------------------|
-********************************-|
-00000000000000000000000000000000-|


1:16
1
----------------------------------------------------------------------------------|
----------------------------------------------------------------------------------|
---^----^----^----^----^----^----^----^----^----^----^----^----^----^----^----^---|
-13-8-13-8-13-8-13-8-13-8-13-8-13-8-13-8-13-8-13-8-13-8-13-8-13-8-13-8-13-8-13-8--|
----------------------------------------------------------------------------------|
----------------------------------------------------------------------------------|
2
---------------------------------------------------------------------------------|
---------------------------------------------------------------------------------|
-----_---------_---------_---------_---------_---------_---------_---------_-----|
----/ \-------/ \-------/ \-------/ \-------/ \-------/ \-------/ \-------/ \----|
--13-9-6----13-9-6----13-9-6----13-9-6----13-9-6----13-9-6----13-9-6----13-9-6---|
---------------------------------------------------------------------------------|
RYTHM
----------------------------------|
----------------------------------|
----------------------------------|
----------------------------------|
-********************************-|
-11111111111111111111111111111111-|


1:18
1
------------------------------------------------------------------------------|
------------------------------------------------------------------------------|
---^----^----^----^----^----^----^----^----^----^----^----^----^----^----^----|
-12-8-12-8-12-8-12-8-12-8-12-8-12-8-12-8-15-8-15-8-15-8-15-8-12-8-12-8-12-8---|
------------------------------------------------------------------------------|
------------------------------------------------------------------------------|
GT.2
---------------------------------------------------------------------------------|
---------------------------------------------------------------------------------|
-----_---------_---------_---------_---------_---------_---------_---------_-----|
----/ \-------/ \-------/ \-------/ \-------/ \-------/ \-------/ \-------/ \----|
--13-8-5----13-8-5----13-8-5----13-8-5----13-8-5----13-8-5----13-8-5----13-8-5---|
---------------------------------------------------------------------------------|
RYTHM
----------------------------------|
----------------------------------|
----------------------------------|
----------------------------------|
-********************************-|
-00000000000000000000000000000000-|


1:20
1
----------------------------------------------------------------------------------|
----------------------------------------------------------------------------------|
---^----^----^----^----^----^----^----^----^----^----^----^----^----^----^----^---|
-13-8-13-8-13-8-13-8-13-8-13-8-13-8-13-8-13-8-13-8-13-8-13-8-13-8-13-8-13-8-13-8--|
----------------------------------------------------------------------------------|
----------------------------------------------------------------------------------|
2
---------------------------------------------------------------------------------|
---------------------------------------------------------------------------------|
-----_---------_---------_---------_---------_---------_---------_---------_-----|
----/ \-------/ \-------/ \-------/ \-------/ \-------/ \-------/ \-------/ \----|
--13-9-6----13-9-6----13-9-6----13-9-6----13-9-6----13-9-6----13-9-6----13-9-6---|
---------------------------------------------------------------------------------|
RYTHM
----------------------------------|
----------------------------------|
----------------------------------|
----------------------------------|
-****************-4-----1---------|
-1111111111111111-4-----1---------|

 
 1:22
1
---------------------------------------|
---------------------------------------|
---^----^----^----^----^----^----^-----|
-12-8-12-8-12-8-12-8-12-8-12-8-12-8----|
------------------------------------ps-|
--------------------------------------\|

GT.2
-------------------------------------|
-------------------------------------|
-----_---------_---------_-----------|
----/ \-------/ \-------/ \----------|
--13-8-5----13-8-5----13-8-5----13---|
-------------------------------------|
RYTHM
---------------------|
---------------------|
---------------------|
---------------------|
-****************----|
-0000000000000000-ps\|


1:24

B
---------------------------------------------------------------------------|
---------------------------------------------------------------------------|
--------------------------trem pick-----------------------H----------------|
---------------------------harmonics---------------------L5----------------|
-11111-----11111-----11111--/---------1--1------PS\---*---H----------------|
-11111-----11111-----11111-------\----1--1---------\--0-R3.75--------------|


1:37
B
------------------------------------------------------------------------------------|
------------------------------------------------------------------------------------|
------------------------------------------------------------------------------------|
-*-*-*---*-*--*-*---*-*-*-*-*---*-*--*-*---*-*-*-*-*--*-*--*-*-*-*-*--*-*-*--*------|
-1-1-1---1-1--1-1---1-1-0-0-0---0-0--0-0---0-0-1-1-1--1-1--1-1-1-4-1--0-0-0--0-0----|
-1-1-1---1-1--1-1---1-1-0-0-0---0-0--0-0---0-0-1-1-1--1-1--1-1-1-4-1--0-0-0--0-0----|


1:49
GT.1
---------------------------------------------------------------------------------|
---------------------------------------------------------------------------------|
---------------------------------------------------------------------------------|
---^----^----^----^----^----^----^----^----^----^----^----^----^----^----^----^--|
-13-6-13-6-13-6-13-6-13-6-13-6-13-6-13-6-13-6-13-6-13-6-13-6-13-6-13-6-13-6-13-6-|
---------------------------------------------------------------------------------|
GT.2
---------------------------------------------------------------------------------|
---------------------------------------------------------------------------------|
-----_---------_---------_---------_---------_---------_---------_---------_-----|
----/ \-------/ \-------/ \-------/ \-------/ \-------/ \-------/ \-------/ \----|
--13-9-6----13-9-6----13-9-6----13-9-6----13-9-6----13-9-6----13-9-6----13-9-6---|
---------------------------------------------------------------------------------|

1:52
GT.1
---------------------------------------------------------------------------------|
---------------------------------------------------------------------------------|
---------------------------------------------------------------------------------|
---^----^----^----^----^----^----^----^----^----^----^----^----^----^----^----^--|
-13-5-13-5-13-5-13-5-13-5-13-5-13-5-13-5-14-8-14-8-14-8-14-8-13-5-13-5-13-5-13-5-|
---------------------------------------------------------------------------------|
GT.2
---------------------------------------------------------------------------------|
---------------------------------------------------------------------------------|
-----_---------_---------_---------_---------_---------_---------_---------_-----|
----/ \-------/ \-------/ \-------/ \-------/ \-------/ \-------/ \-------/ \----|
--13-8-5----13-8-5----13-8-5----13-8-5----13-8-5----13-8-5----13-8-5----13-8-5---|
---------------------------------------------------------------------------------|

1:54
1
-----------------------------------------------------------------------------------------------|
-----------------------------------------------------------------------------------------------|
--^----^----^----^----^----^----^----^----^----^----^----^----^----^----^----^---^---^---^---^-|
13-8-13-8-13-8-13-8-13-8-13-8-13-8-13-8-13-8-13-8-13-8-13-8-13-8-13-8-13-8-13-8-168-168-138-138|
-----------------------------------------------------------------------------------------------|
-----------------------------------------------------------------------------------------------|
2
----------------------------------------------------------------------------------------|
----------------------------------------------------------------------------------------|
-----_---------_---------_---------_---------_---------_---------_---------_--------_---|
----/ \-------/ \-------/ \-------/ \-------/ \-------/ \-------/ \-------/ \------/ \--|
--13-9-6----13-9-6----13-9-6----13-9-6----13-9-6----13-9-6----13-9-6----13-9-6---13-9-6-|
----------------------------------------------------------------------------------------|

1:58
1
----------------------------------------------------------------------------------|
----------------------------------------------------------------------------------|
---^----^----^----^----^----^----^----^----^----^----^----^----^----^----^----^---|
-12-8-12-8-12-8-12-8-12-8-12-8-12-8-12-8-12-8-12-8-12-8-12-8-12-8-12-8-12-8-12-8--|
---------------------------------------------------------------------------------\|
---------------------------------------------------------------------------------\|
GT.2
---------------------------------------------------------------------------------|
---------------------------------------------------------------------------------|
-----_---------_---------_---------_---------_---------_---------_---------_-----|
----/ \-------/ \-------/ \-------/ \-------/ \-------/ \-------/ \-------/ \----|
--13-8-5----13-8-5----13-8-5----13-8-5----13-8-5----13-8-5----13-8-5----13-8-5---|
---------------------------------------------------------------------------------|

rythm 1:49-2:01
------------------------------------------------------------------------------------|
------------------------------------------------------------------------------------|
------------------------------------------------------------------------------------|
-*-*-*---*-*--*-*---*-*-*-*-*---*-*--*-*---*-*-*-*-*--*-*--*-*-*-*-*--*-*-*--*------|
-1-1-1---1-1--1-1---1-1-0-0-0---0-0--0-0---0-0-1-1-1--1-1--1-1-1-4-1--0-0-0--0-0----|
-1-1-1---1-1--1-1---1-1-0-0-0---0-0--0-0---0-0-1-1-1--1-1--1-1-1-4-1--0-0-0--0-0----|



2:01
L
------------------------------------------------------------------------------------------------|
---------------------------------------------^---------------------------------------------_----|
3-**-4-**-3-**-4-**-333-3-**-4-**-3-**-4-**-4-3--^----------^-----^-------^---^-----------/ \---|
1-11-1-11-1-11-1-11-111/4-44-4-44-4-44-4-44-----4-3--3-3-3-3-4-4-4-3-3-3-4-3-4-3-4-3-4-3-3-4-3--|
----------------------------------------------------------------------------4---4---4---4-----4-|
------------------------------------------------------------------------------------------------|
R
------------------------------------------------------------------------|
------------------------------------------------------------------------|
------------------------------------------------------------------------|
------------------------4-**-4-**-4-**-4-**-444---6-6-6-666-666---------|
1-**-1-**-1-**-1-**-111-2-22-2-22-2-22-2-22-222--/4-4-4-444-444-ect-----|
1-11-1-11-1-11-1-11-111-------------------------------------------------|


2:10
L
------------------------------------------------------------------------------------------------|
---------------------------------------------^---------------------------------------------_----|
3-**-4-**-3-**-4-**-333-3-**-4-**-3-**-4-**-4-3--^----------^-----^-------^---^-----------/ \---|
1-11-1-11-1-11-1-11-111/4-44-4-44-4-44-4-44-----4-3--3-3-3-3-4-4-4-3-3-3-4-3-4-3-4-3-4-3-3-4-3--|
----------------------------------------------------------------------------4---4---4---4-----4-|
------------------------------------------------------------------------------------------------|
R
------------------------------------------------------------------------|
------------------------------------------------------------------------|
------------------------------------------------------------------------|
------------------------4-**-4-**-4-**-4-**-444---6-6-6-666-666---------|
1-**-1-**-1-**-1-**-111-2-22-2-22-2-22-2-22-222--/4-4-4-444-444-ect-----|
1-11-1-11-1-11-1-11-111-------------------------------------------------|

2:19
L
------------------------------------------------------------------------------------------------|
---------------------------------------------^---------------------------------------------_----|
3-**-4-**-3-**-4-**-333-3-**-4-**-3-**-4-**-4-3--^----------^-----^-------^---^-----------/ \---|
1-11-1-11-1-11-1-11-111/4-44-4-44-4-44-4-44-----4-3--3-3-3-3-4-4-4-3-3-3-4-3-4-3-4-3-4-3-3-4-3--|
----------------------------------------------------------------------------4---4---4---4-----4-|
------------------------------------------------------------------------------------------------|
R
------------------------------------------------------------------------|
------------------------------------------------------------------------|
------------------------------------------------------------------------|
------------------------4-**-4-**-4-**-4-**-444---6-6-6-666-666-4-------|
1-**-1-**-1-**-1-**-111-2-22-2-22-2-22-2-22-222--/4-4-4-444-444-4ect----|
1-11-1-11-1-11-1-11-111-------------------------------------------------|


2:18
B
---------------------------------------------------------------------------|
---------------------------------------------------------------------------|
--------------------------trem pick-----------------------H----------------|
---------------------------harmonics---------------------L5----------------|
-11111-----11111-----11111--/---------1--1------PS\---*---H----------------|
-11111-----11111-----11111-------\----1--1---------\--0-R3.75--------------|


2:40
B
------------------------------------------------------------------------------------|
------------------------------------------------------------------------------------|
------------------------------------------------------------------------------------|
-*-*-*---*-*--*-*---*-*-*-*-*---*-*--*-*---*-*-*-*-*--*-*--*-*-*-*-*--*-*-*--*------|
-1-1-1---1-1--1-1---1-1-0-0-0---0-0--0-0---0-0-1-1-1--1-1--1-1-1-4-1--0-0-0--0-0----|
-1-1-1---1-1--1-1---1-1-0-0-0---0-0--0-0---0-0-1-1-1--1-1--1-1-1-4-1--0-0-0--0-0----|


2:53
GT.1
---------------------------------------------------------------------------------|
---------------------------------------------------------------------------------|
---------------------------------------------------------------------------------|
---^----^----^----^----^----^----^----^----^----^----^----^----^----^----^----^--|
-13-6-13-6-13-6-13-6-13-6-13-6-13-6-13-6-13-6-13-6-13-6-13-6-13-6-13-6-13-6-13-6-|
---------------------------------------------------------------------------------|
GT.2
---------------------------------------------------------------------------------|
---------------------------------------------------------------------------------|
-----_---------_---------_---------_---------_---------_---------_---------_-----|
----/ \-------/ \-------/ \-------/ \-------/ \-------/ \-------/ \-------/ \----|
--13-9-6----13-9-6----13-9-6----13-9-6----13-9-6----13-9-6----13-9-6----13-9-6---|
---------------------------------------------------------------------------------|


2:56
GT.1
---------------------------------------------------------------------------------|
---------------------------------------------------------------------------------|
---------------------------------------------------------------------------------|
---^----^----^----^----^----^----^----^----^----^----^----^----^----^----^----^--|
-13-5-13-5-13-5-13-5-13-5-13-5-13-5-13-5-14-8-14-8-14-8-14-8-13-5-13-5-13-5-13-5-|
---------------------------------------------------------------------------------|
GT.2
---------------------------------------------------------------------------------|
---------------------------------------------------------------------------------|
-----_---------_---------_---------_---------_---------_---------_---------_-----|
----/ \-------/ \-------/ \-------/ \-------/ \-------/ \-------/ \-------/ \----|
--13-8-5----13-8-5----13-8-5----13-8-5----13-8-5----13-8-5----13-8-5----13-8-5---|
---------------------------------------------------------------------------------|

2:59
1
-----------------------------------------------------------------------------------------------|
-----------------------------------------------------------------------------------------------|
--^----^----^----^----^----^----^----^----^----^----^----^----^----^----^----^---^---^---^---^-|
13-8-13-8-13-8-13-8-13-8-13-8-13-8-13-8-13-8-13-8-13-8-13-8-13-8-13-8-13-8-13-8-168-168-138-138|
-----------------------------------------------------------------------------------------------|
-----------------------------------------------------------------------------------------------|
2
----------------------------------------------------------------------------------------|
----------------------------------------------------------------------------------------|
-----_---------_---------_---------_---------_---------_---------_---------_--------_---|
----/ \-------/ \-------/ \-------/ \-------/ \-------/ \-------/ \-------/ \------/ \--|
--13-9-6----13-9-6----13-9-6----13-9-6----13-9-6----13-9-6----13-9-6----13-9-6---13-9-6-|
----------------------------------------------------------------------------------------|

3:04
1
----------------------------------------------------------------------------------|
----------------------------------------------------------------------------------|
---^----^----^----^----^----^----^----^----^----^----^----^----^----^----^----^---|
-12-8-12-8-12-8-12-8-12-8-12-8-12-8-12-8-12-8-12-8-12-8-12-8-12-8-12-8-12-8-12-8--|
---------------------------------------------------------------------------------\|
---------------------------------------------------------------------------------\|
rythm 2:53-3:04
------------------------------------------------------------------------------------|
------------------------------------------------------------------------------------|
------------------------------------------------------------------------------------|
-*-*-*---*-*--*-*---*-*-*-*-*---*-*--*-*---*-*-*-*-*--*-*--*-*-*-*-*--*-*-*--*------|
-1-1-1---1-1--1-1---1-1-0-0-0---0-0--0-0---0-0-1-1-1--1-1--1-1-1-4-1--0-0-0--0-0----|
-1-1-1---1-1--1-1---1-1-0-0-0---0-0--0-0---0-0-1-1-1--1-1--1-1-1-4-1--0-0-0--0-0----|


3:04
L
------------------------------------------------------------------|
------------------------------------------------------------------|
------------------------------------------------------------------|
------------------------------------------------------------------|
------------------------------------------------------------------|
-1-1-3-1-4-3-0-1-1-4-3-0-1-4-3-0-1-1-3-1-4-3-0-1-1-4-3-0-1-4-3-0--|

3:09
------------------------------------------------------------------|
------------------------------------------------------------------|
------------------------------------------------------------------|
------------------------------------------------------------------|
------------------------------------------------------------------|
-1-1-3-1-4-3-0-1-1-4-3-0-1-4-3-0-1-1-3-1-4-3-0-1-1-4-3-0-1-4-3-0--|

3:14
B
-----------------------------------------------------------------|
-----------------------------------------------------------------|
-----------------------------------------------------------------|
-*-*-------------------------------------------------------------|
-1-1-3-*-4-3-*-1-*-4-3-*-1-4-3-0-1-1-3-*-4-3-*-1-*-4-3-*-1-4-3-0-|
-1-1-3-0-4-3-0-1-0-4-3-0-1-4-3-0-1-1-3-0-4-3-0-1-0-4-3-0-1-4-3-0-|

3:18
-----------------------------------------------------------------|
-----------------------------------------------------------------|
-----------------------------------------------------------------|
-*-*-------------------------------------------------------------|
-1-1-3-*-4-3-*-1-*-4-3-*-1-4-3-0-1-1-3-*-4-3-*-1-*-4-3-*-1-4-3-0-|
-1-1-3-0-4-3-0-1-0-4-3-0-1-4-3-0-1-1-3-0-4-3-0-1-0-4-3-0-1-4-3-0-|

3:23
L
-------------------------------|
-------------------------------|
-----------3-------------------|
-----------1-------------------|
--1-----**-1--**------1-PS-----|
--1-----00-1--00------1---\----|
R
-------------------------------|
-------------------------------|
-------------------------------|
-------------------------------|
--1-----**-1------**-1-PS------|
--1-----00-1------00-1---\-----|

3:32
L
--------------------------------------------------------------------------------|
--------------------------------------------------------------------------------|
--8--877--744-----3---8--877--744-----3---8--877--744-----3---8--877--744-----3-|
--X--XXX--XXX--2--X---X--XXX--XXX--2--X---X--XXX--XXX--2--X---X--XXX--XXX--2--X-|
-/6--655--522--2--1--/6--655--522--2--1--/6--655--522--2--1--/6--655--522--2--1-|
--------------------------------------------------------------------------------|
R
-------------------------------------------------------------------------------------------|
-------------------------------------------------------------------------------------------|
-------------------------3-----------------------3-----------------------3-----------------|
-------------------------1-----------------------1-----------------------1-----------------|
-1--**-2-------5--2---1--1--**--2------5--2---1--1--**--2------5--2---1--1--**--2-----5--2-|
-1--00-2-------5--2---1-----00--2------5--2---1-----00--2------5--2---1-----00--2-----5--2-|


3:51
L
-------------------------------------------------------------------------------|
-------------------------------------------------------------------------------|
-------------------------------------------------------------------------------|
-------------------------------------------------------------------------------|
---------------------2222-1111-----1111--------------------2222-1111-----1111--|
-1111-4444-3333-1111----------4444-----0000-4444-3333-0000----------4444-------|
R
---------------------------------------------------------------|
---------------------------------------------------------------|
---------------------------------------------------------------|
-*-----------------------------------*-------------------------|
-1-----------------------------------0-------------------------|
-1-----------------------------------0-------------------------|


3:55
L
-------------------------------------------------------------|
-------------------------------------------------------------|
----------------------------------------------------------P--|
----------------------------------------------------------H--|
---------------------2222-1111------/6-565656565656565656-6--|
-1111-4444-3333-1111----------4444---------------------------|
R
-------------------------------------------------|
-------------------------------------------------|
-------------------------------------------------|
-*--*--*--*--*--*--*--*--*--*--*--*--*--*--*--*--|
-0--0--0--0--0--0--0--0--0--0--0--0--0--0--0--0--|
-0--0--0--0--0--0--0--0--0--0--0--0--0--0--0--0--|

4:00
B
-------------------------------------------------------------------------------|
-------------------------------------------------------------------------------|
-------------------------------------------------------------------------------|
-------------------------------------------------------------------------------|
---------------------2222-1111-----1111--------------------2222-1111-----1111--|
-1111-4444-3333-1111----------4444-----0000-4444-3333-0000----------4444-------|


RIGHT SIDE END IS HAMMER ONS THEN PH 5
4:04
-------------------------------------------------------------|
-------------------------------------------------------------|
----------------------------------------------------------P--|
----------------------------------------------------------H--|
---------------------2222-1111------/6-565656565656565656-6--|
-1111-4444-3333-1111----------4444---------------------------|

4:09
B
---------------------------------------------------------------------------------|
---------------------------------------------------------------------------------|
---------------------------------------------------------------------------------|
---------------------------------------------------------------------------------|
---------------------2222-1111-----1111--------------------2222-1111------1111---|
-1111-4444-3333-1111----------4444-----0000-4444-3333-0000----------4444---------|

4:13
------------------------------------------------------------|
------------------------------------------------------------|
------------------------------------------------------------|
------------------------------------------------------------|
--------------------2222-1111------/6-565656565656565656-\--|
-1111-4444-3333-1111----------4444-----------------------\--|

4:17
-----------------------------------------------------------------------|
-----------------------------------------------------------------------|
-----------------------------------------------------------------------|
---------*-*---*---------*-*---*---------*-*---*---------*-*---*-------|
-*-*-*-*-2-1-*-1-*-*-*-*-2-1-*-1-*-*-*-*-2-1-*-1-*-*-*-*-2-1-*-1-------|
-1-4-3-1-----4---0-4-3-0-----4---1-4-3-1-----4---0-4-3-0-----4---------|

4:24
-----------------------------------------------------------------------|
-----------------------------------------------------------------------|
-----------------------------------------------------------------------|
---------*-*---*---------*-*---*---------*-*---*---------*-*-----------|
-*-*-*-*-2-1-*-1-*-*-*-*-2-1-*-1-*-*-*-*-2-1-*-1-*-*-*-*-2-1-*---------|
-1-4-3-1-----4---0-4-3-0-----4---1-4-3-1-----4---0-4-3-0-----4---------|

BAR HARMONIC PULLS

4:40
----------------------------------------------------------------------------|
----------------------------------------------------------------------------|
----------------------------------------------------------------------------|
-*-*-*-*-*--*--*--*--*-*-*-*-*--*--*--*--*-*-*-*-*--*--*--*---*-*-*-*-*--*--|
-1-1-1-1-1--1--1--1--1-1-1-1-1--1--1--1--1-1-1-1-1--1--1--1---1-1-1-1-1--1--|
-1-1-1-1-1--1--1--1--1-1-1-1-1--1--1--1--1-1-1-1-1--1--1--1---1-1-1-1-1--1--|


4:48
B
-----------------------------------------------------------------------------------|
-----------------------------------------------------------------------------------|
-----------------------------------------------------------------------------------|
-*-*-*-*--*--*--*-------*-*-*-*--*--*--*--*-*-*-*--*--*--*-------*-*-*-*--*--*--*--|
-1-1-1-1--1--1--1-SWELL-1-1-1-1--1--1--1--1-1-1-1--1--1--1-SWELL-1-1-1-1--1--1--1--|
-1-1-1-1--1--1--1--[1]--1-1-1-1--1--1--1--1-1-1-1--1--1--1--[1]--1-1-1-1--1--1--1--|

4:59
W/GT.1 TAPPING RIFFX2
-----------------------------------------------------------------------------------|
-----------------------------------------------------------------------------------|
-----------------------------------------------------------------------------------|
-*-*-*-*--*--*--*-------*-*-*-*--*--*--*--*-*-*-*--*--*--*-------*-*-*-*--*--*--*--|
-1-1-1-1--1--1--1-SWELL-1-1-1-1--1--1--1--1-1-1-1--1--1--1-SWELL-1-1-1-1--1--1--1--|
-1-1-1-1--1--1--1--[1]--1-1-1-1--1--1--1--1-1-1-1--1--1--1--[1]--1-1-1-1--1--1--1--|


5:09
M
-------------------------------------------------------------------------------------------|
-------------------------------------------------------------------------------------------|
----_-------_-------_-------_-------_---------_-------_-------_-------_------_------_------|
---/ \-----/ \-----/ \-----/ \-----/ \-------/ \-----/ \-----/ \-----/ \----/ \----/ \-----|
-13-9-6--13-9-6--13-9-6--13-9-6--13-9-6----13-8-5--13-8-5--14-8-5--13-8-5-14-8-5-13-8-5----|
-------------------------------------------------------------------------------------------|
R
---------------------------------------------------------------|
---------------------------------------------------------------|
---------------------------------------------------------------|
-*-*-----------*-*--*---------------*-*---------*-*--*---------|
-1-1-----------1-1--1---------------0-0---------0-0--0---------|
-1-1-----------1-1--1---------------0-0---------0-0--0---------|


5:17
M
-----------------------------------------------------------------------|
-----------------------------------------------------------------------|
----_--------_--------_--------_------^----^----^----^----^----^-------|
---/ \------/ \------/ \------/ \---16-8-16-8-16-8-13-8-13-8-13-8------|
-18-9-6---18-9-6---18-9-6---18-9-6-------------------------------------|
-----------------------------------------------------------------------|
R
---------------------------------------------------------------|
---------------------------------------------------------------|
---------------------------------------------------------------|
--*-*-----------*-*--*-----------------------------------------|
--1-1-----------1-1--1-----------------------------------------|
--1-1-----------1-1--1-----------------------------------------|

5:20
M
--------------------------|--------------------------------------|
--------------------------|--------------------------------------|
----_--------_------------|--------------------------------------|
---/ \------/ \------^----|-GT2---8\6-6\4-4\3-3---///------------|
-17-8-5---17-8-5---17-8---|-GT1---9\8-8\6-6\5-5----1-----------/-|
--------------------------|------------------------1-----------/-|
R
---------------------------------------------------------------|
---------------------------------------------------------------|
---------------------------------------------------------------|
--*-*---------*-*--*-----------------------------///-----------|
--0-0---------0-0--0------------------------------1------------|
--0-0---------0-0--0------------------------------1------------|




            
            
Suggest correction
Creating personal tab
Creating personal tab
You can edit any tab online and save it as your Personal.

You can edit, replace or remove any tab part or add personal notes – all changes will be seen only by you.

Personal tabs can be accessed anytime from any device, even offline.
Learn more »
Give kudos to tab author, rate the tab!
1 2 3 4 5
comments
print report bad tab
guest
You may want to rate the tab now too:
select rating
Wanna post a correction for this tab? Suggest correction