Oops, an error
Loading. Please wait.

Frontier Psychiatrist Tab

version 1
version 1

Whole song

6,739 views 9 this week
1 commentread comment
1 2 3 4 5
x 8
add to favorites
launch autoscroll
font size
0
reset
how to read this tab
guitar tuner
×
Best way to learn
"Frontier Psychiatrist"
Autoscroll
slow
fast
+/-
esc
set tempo
stop
chords by m.c. brown shoes
mcbrownshoes@fastmail.fm

intro: Bm F#

Bm                      F#
That boy needs therapy, Psychosomatic, that boy needs therapy
       Bm                                         F#
Purely psychosomatic, that boy needs therapy, lie down on the couch
                              Bm
What does that mean? You're a nut! You're crazy in the coconut!
F#                                               Bm
What does that maen? That boy needs therapy, I'm gonna kill you
                        F#
That boy needs therapy, Ranakazoo, let's have a tune
         Bm                       F#
Now when I count three, That (scratch) boy needs therapy
Bm                                 F#
(scratch) He was white as a sheet, and he also made false teeth

chorus: Bm F#

------2-3-2---------------2-3-2--|
---------------------------------|
---------------------------------|
---------------------------------|
--2------------------------------|
----------------------2----------|
         'Avalanches above, business continues below..'

Bb
Did I ever tell you a story about cowboys and midgets and the Indians and
Ab
Front Frontier Psychiatrist, I feel, I feel, I feel strangely hypnotised
Bb
(scratch) I was in another world, a world of 20, 20,000 girls
    Ab
and Milk! and rectangles, to an optometrist! a man with a golden gun eyeball
Bb
and tighten your buttocks, pour juice on your chin! promise my girlfriend

with the violin...

  -----------------7--9-7-5--7-5-|
  --9--9-9-10-9-6----------------|
  -------------------------------|
  -------------------------------|
  -------------------------------|
  -------------------------------|

Bm                      F#
That boy needs therapy, Psychosomatic, that boy needs therapy
       Bm                                         F#
Purely psychosomatic, that boy needs therapy, lie down on the couch
                              Bm
What does that mean? You're a nut! You're crazy in the coconut!
F#                                               Bm
What does that mean? That boy needs therapy, I'm gonna kill you
                        F#
That boy needs therapy, Ranakazoo, let's have a tune
         Bm                       F#
Now when I count three, That (scratch) boy needs therapy
Bm                                 F#
(scratch) He was white as a sheet, and he also made false teeth

chorus: Bm F#

------2-3-2---------------2-3-2--|
---------------------------------|
---------------------------------|
---------------------------------|
--2------------------------------|
----------------------2----------|
                         'Frontier psychiatrist!'

Bb
Can you think of anything that talks... other than a person?
Ab
Um (scratch) a bird? Yeah!

Bird scratch solo #1: Bb Ab

     Sometimes a parrot talks!

Bird scratch solo #2: Bm F#

'Yes, some birds are funny when they talk.'

'Can you think of anything else?'

'Um...

    a record?'
      --4-----2-----0--------2-----0-------------|
      ----5-----4-----2--------4-----2----4------|
      ------6-----4-----2--------4-----2----4----|
      ----------------------------------------4--|
      -------------------------------------------|
      -------------------------------------------|

      --2h4-5--5h7-9--12h14-16---2h4-5--5h7-9--12h14-16--12h14-16-|
      ------------------------------------------------------------|
      ------------------------------------------------------------|
      ------------------------------------------------------------|
      ------------------------------------------------------------|
      ------------------------------------------------------------|
Suggest correction
comments
print report bad tab
1 comment total.
+2 reply
Oligarky dude 10 Dec 13, 2008 04:34 AM

The only bit I looked at was the spanish style riff at 4.19 and have a few suggestions/corrections:

B|-9---7---5-----7---5---4---|
G|--9---8---6-----8---6---4--|
D|---11--9---7-----9---7---6-|


here, while most of the notes were correct, it's easier to do it on these strings, as you can just move you hand down the neck, rather than across the strings. Also, the last note is a 6 on D, not a 4

e|------------11-12--14-16-17-------------9-11--12-14-16--12-14-16-|
B|------12--14--------------------9-10--12-------------------------|
G|-13-14------------------------11---------------------------------|


and then in the second part, some of your notes were slightly off, though the idea was right. Personally, for a fiddly riff like this, I prefer to play across the strings rather than up the neck, as it's easier to get precision, but you could do it all on the e string.

Like I said, haven't looked at the rest, but good start on that funky little riff

guest
You may want to rate the tab now too:
select rating
Wanna post a correction for this tab? Suggest correction