Oops, an error
Loading. Please wait.

Aint No Man bass

version 2
version 2

Whole song

3,671 views 39 this week
3 commentsread comments
1 2 3 4 5
x 6
add to favorites
×
Save as Personal and add changes to this tab that will be seen only by you. Learn more ›
×
You can save this tab as Personal to edit and correct it or add notes. All changes will be seen only by you. Learn more »
launch autoscroll
font size
0
reset
guitar tuner
edit
Autoscroll
slow
fast
+/-
esc
set tempo
stop
Artist: The Avett Brothers
Song: Ain't No Man
Part: Whole Bass Tab

tabbed by BejujularZach/zacharylee0007




Intro

G|-13/16--13--11-13-11----------------|
D|---------------------13-9-----------|
A|------------------------------------|
E|------------------------------------|

G|-------------------------------------------------------------------------|
D|--------------9--9-------------9--9-------------9--9--11/13--11p9--------|
A|--------9h11---11--------9h11---11--------9h11---11---------------11-9---|
E|-----7-------------------------------------------------------------------|

G|---------------------------------------------------|
D|-----9--------9--9-------------9--9----------------|
A|--------9h11---11--------9h11---11--11-9-----------|
E|-----------------------------------------11-7/-----|


Chorus 1

    Ain't no man...                                  
G|-----------------------------------------------------------------|
D|--------------9--9-------------9--9-------------9--9-------------|
A|--------9h11---11--------9h11---11--------9h11---11---11--9--11--|
E|-----7-----------------------------------------------------------|

G|---------------------------------------------|
D|-----9--------9--9---------9-----------------|
A|--------9h11---11---11--9-----9-------9-9----|
E|---------------------------------------------|

    There ain't nobody here...
G|----------------------------------------------------------|
D|----------------------------------------------------------|
A|--7----------9-----------7---7-7--9---7h9-9---7----9-9----|
E|------7-7---------7-7-------------------------------------|



Interlude
G|-------------------------------------------------------|
D|--------------9--9-------------9--9--------------------|
A|--------9h11---11--------9h11---11---11--9-------------|
E|-----7--------------------------------------13--7/-----|


Verse 1

    You got to serve...
G|-----------------------------------------------|
D|-----------------------------------------------|
A|--7----------9-----------7--------9---7h9-9----|
E|------7-7---------7-7--------7-7---------------|

    You gotta show up...
G|-----------------------------------------------|
D|-----------------------------------------------|
A|--7----------9-----------7--------9---7/9/-----|
E|------7-7---------7-7--------7-7---------------|


Chorus 2

    Ain't no man...                                  
G|-----------------------------------------------------------------|
D|--------------9--9-------------9--9-------------9--9-------------|
A|--------9h11---11--------9h11---11--------9h11---11---11--9--11--|
E|-----7-----------------------------------------------------------|

G|---------------------------------------------|
D|-----9--------9--9---------9-----------------|
A|--------9h11---11---11--9-----9--------9-9---|
E|---------------------------------------------|

    There ain't nobody here...
G|----------------------------------------------------------|
D|----------------------------------------------------------|
A|--7----------9-----------7---7-7--9---7h9-9---7----9-9----|
E|------7-7---------7-7-------------------------------------|


Interlude
G|-------------------------------------------------------|
D|--------------9--9-------------9--9--------------------|
A|--------9h11---11--------9h11---11---11--9-------------|
E|-----7--------------------------------------13--7/-----|


Verse 2

    You say you look...                She is so pretty...
G|-----------------------------------------------|
D|-----------------------------------------------|
A|--7----------9-----------7--------9------------|
E|------7-7---------7-7--------7-7---------------|


Chorus 3

    Ain't no man...                                  
G|-----------------------------------------------------------------|
D|--------------9--9-------------9--9-------------9--9-------------|
A|--------9h11---11--------9h11---11--------9h11---11---11--9--11--|
E|-----7-----------------------------------------------------------|

G|---------------------------------------------|
D|-----9--------9--9---------9-----------------|
A|--------9h11---11---11--9-----9--------9-9---|
E|---------------------------------------------|

    There ain't nobody here...
G|----------------------------------------------------------|
D|----------------------------------------------------------|
A|--7----------9-----------7---7-7--9---7h9-9---7----9-9----|
E|------7-7---------7-7-------------------------------------|


Interlude
G|-------------------------------------------------------|
D|--------------9--9-------------9--9--------------------|
A|--------9h11---11--------9h11---11---11--9-------------|
E|-----7--------------------------------------13--7/-----|


Verse 3 --No instruments--

Chorus 4

    Ain't no man...                                  
G|-----------------------------------------------------------------|
D|--------------9--9-------------9--9-------------9--9-------------|
A|--------9h11---11--------9h11---11--------9h11---11---11--9--11--|
E|-----7-----------------------------------------------------------|

G|---------------------------------------------|
D|-----9--------9--9---------9-----------------|
A|--------9h11---11---11--9-----9--------9-9---|
E|---------------------------------------------|

    There ain't nobody here...
G|----------------------------------------------------------|
D|----------------------------------------------------------|
A|--7----------9-----------7---7-7--9---7h9-9---7----9-9----|
E|------7-7---------7-7-------------------------------------|

G|-----------------------------------------------|
D|--------------9--9---------9-------------------|
A|--------9h11---11----9h11---11--7----9-9-------|
E|-----7-----------------------------------------|

G|----------------------------------------------|
D|--------------9--9----------------------------|
A|--------9h11---11--11--9--11--7-----9---------|
E|-----7----------------------------------------|

Outro

G|-------------------------------------------------------------------------|
D|--------------9--9-------------9--9-------------9--9--11/13--11p9--------|
A|--------9h11---11--------9h11---11--------9h11---11---------------11-9---|
E|-----7-------------------------------------------------------------------|

G|---------------------------------------------------|
D|-----9--------9--9-------------9--9----------------|
A|--------9h11---11--------9h11---11--11-9-----------|
E|-----------------------------------------11-7/-----|

            
            
Suggest correction
Creating personal tab
Creating personal tab
You can edit any tab online and save it as your Personal.

You can edit, replace or remove any tab part or add personal notes – all changes will be seen only by you.

Personal tabs can be accessed anytime from any device, even offline.
Learn more »
comments
print report bad tab
3 comments total.
0 reply
casebolt.12 10 Jul 15, 2016 01:44 PM

sounds good, much better than version 1. i like to play the bulk of the main line a string higher, makes it so i don't need to change hand positions at all, just play the root C note (E--7--) with your pinky, then shift the rest up a higher string.

guest
You may want to rate the tab now too:
select rating
Wanna post a correction for this tab? Suggest correction