Oops, an error
Loading. Please wait.

Famous Flower Of Manhattan Tab

version 1
version 1

Whole song

44,972 views 57 this week
3 commentsread comments
1 2 3 4 5
x 22
add to favorites
launch autoscroll
font size
0
reset
how to read this tab
guitar tuner
×
Best way to learn
"Famous Flower Of Manhattan"
Autoscroll
slow
fast
+/-
esc
set tempo
stop
Difficulty
Capo
intermediate
2nd fret
Capo 2

[Intro/Bridge]
e|--------------------------------------------------|
B|-0-3----------------------------------------------|
G|-------2-4-2-0-0--2-4-2-0-2-4-2-0-2-4-2-0-2-4-0---|
D|-(0)----------------------------------------------|
A|-(x)----------------------------------------------|
E|-(3)----------------------------------------------|
(play between the G note and D open note while playing intro.)

e|-3-----3---------3----------------------------|
B|-3-----0-----3----------------3---------------|
G|-0-or--0----------(x2) then----------5--4-----|
D|-2-----2--------------------------------------|
A|-3-----3----3--3-----------3----3---3---------|
E|----------------------------------------------|
play to which Cmaj7 or C9 chord you prefer

************************************

| (n)  Ghost note
| x    Dead note

************************************
Suggest correction
comments
print report bad tab
3 comments total.
0 reply
rhouston352 10 Sep 27, 2012 10:39 PM

|-------------------------------------------------------------------------------------------------|
|----0-----3-----0-----3-----------------3-----3--------------------------------------------------|
|-------------------------2--4--2--0--0-----------2--0--2--0--2--4--2--0--2--4--2--0--2-----4--0--|
|-------0-----------0-----------0-----------0-----------0-----------0------------0-----------0-----|
|---------------------------------------------------------------------------------------------------|
|-3-----------3-----------3-----------3-----------3-----------3-----------3------------3-----------|

heres the first part of the intro all typed out

+2 reply
rhouston352 10 Sep 27, 2012 10:40 PM

|-------------------------------------------------------------------------------------------------|
|----0-----3-----0-----3-----------------3-----3--------------------------------------------------|
|-------------------------2--4--2--0--0-----------2--0--2--0--2--4--2--0--2--4--2--0--2-----4--0--|
|-------0-----------0-----------0-----------0-----------0-----------0-----------0-----------0-----|
|-------------------------------------------------------------------------------------------------|
|-3-----------3-----------3-----------3-----------3-----------3-----------3-----------3-----------|

slight correction on my above comment ^

0 reply
isaacsbate98 10 Aug 13, 2015 02:58 AM

also sounds nice if you leave the capo on the 2nd but leave the top E string as a drone note and play G2 without the top string. it also makes more sense with the fingerpicking from the recording instead of hammering. awesome chords though love this band!

guest
You may want to rate the tab now too:
select rating
Wanna post a correction for this tab? Suggest correction