Oops, an error
Loading. Please wait.

Fisher Road To Hollywood Tab

103 views 9 this week
no commentswrite comment
1 2 3 4 5
3 more votes to show rating
add to favorites
launch autoscroll
font size
0
reset
how to read this tab
guitar tuner
Autoscroll
slow
fast
+/-
esc
set tempo
stop
Help us to improve Ultimate-Guitar.com Take our survey!
×
Author
Difficulty
Tuning
Capo
novice
D A D G B E
5th fret
About this tab version
As listened to from the album True Sadness. Was this info helpful? Yes No
[Intro]

e|-------------------------------------------------------|---------------------------|
B|-----------0-------------0--------------0------------0-|------------1--------------|
G|-----0------------0--------------0-------------0-------|---------0-----0-----------|
D|--------0-------------0--------------0------------0----|----0h2--------------------|
A|-10------------9-------------7------------5------------|-3-------------------------|
D|-------------------------------------------------------|---------------------------|
 
   C                            Am7                 Gmaj7    
e|--------------------------|--------------------|-----------------------|---------------------------|
B|--------------------------|--------1-----------|------------3----------|------0----------0-----0---|
G|-----0-----0-----0-----0--|------------0-----0-|--------0------0-----0-|------0--------0-------0---|
D|--------0-----2-----------|-----2---------2----|-----4-----4------4----|------0------0-------------|
A|--3-----------------3-----|-0------------------|-----------------------|---------------------------|
D|--------------------------|--------------------|-0---------------------|--5-------5---------5------|


[Verse 1] 

e|-------------------|----------------------|-------------------|------------------------|
B|-------0-----------|---------0------------|-------1-----------|-----------3------------|
G|----------0-----0--|------------0-----0---|----------0-----0--|--------0-----0-----0---| x3
D|----0--------0-----|------0--------0------|----2--------2-----|-----4-----------4------|
A|-------------------|----------------------|-3-----------------|------------------------|
D|-5-----------------|---2------------------|-------------------|--0---------------------|


e|--------------------|---------------------|-------------------|-------------------|-----------------|
B|-------0------------|--------0------------|-------1-----------|-----------3-------|--------3--------|
G|----------0-----0---|-----------0-----0---|----------0-----0--|--------0--------0-|-----0-----0-----|
D|----0--------0------|-----0--------0------|----2--------2-----|-----4--------4----|--4-----------4--|
A|--------------------|---------------------|-3-----------------|-------------------|-----------------|
D|-5------------------|--2------------------|-------------------|--0----------------|-----------------|


[Verse 2] 

e|-------------------|----------------------|-------------------|------------------------|
B|-------0-----------|---------0------------|-------1-----------|-----------3------------|
G|----------0-----0--|------------0-----0---|----------0-----0--|--------0-----0-----0---| x3
D|----0--------0-----|------0--------0------|----2--------2-----|-----4-----------4------|
A|-------------------|----------------------|-3-----------------|------------------------|
D|-5-----------------|---2------------------|-------------------|--0---------------------|


e|--------------------|---------------------|-------------------|-------------------|-----------------|
B|-------0------------|--------0------------|-------1-----------|-----------3-------|--------3--------|
G|----------0-----0---|-----------0-----0---|----------0-----0--|--------0--------0-|-----0-----0-----|
D|----0--------0------|-----0--------0------|----2--------2-----|-----4--------4----|--4-----------4--|
A|--------------------|---------------------|-3-----------------|-------------------|-----------------|
D|-5------------------|--2------------------|-------------------|--0----------------|-----------------|


[Bridge]

e|------------------------------|---------------------------|-----------------------|
B|-----0---------------0--------|-----0------------0--------|---------0-------------|
G|------------0--------------0--|-----------0------------0--|------------0-----0----|
D|--------0---------------0-----|--------0------------0-----|------0--------0-------|
A|--2--------------3------------|-5-------------9-----------|-----------------------|
D|------------------------------|---------------------------|--5--------------------|

e|-----------------0-|-----------------------|
B|----1------1-------|--------1--------------|
G|----0--------------|-----0-----0-----0-----|  x2
D|--------2----------|--------------2--------|
A|-3------------3----|--3--------------------|
D|-------------------|-----------------------|


e|--------------------------------------|-----------------------------------------|
B|-------0------------------0-----------|-------0------------------0--------------|
G|----------0-----0------------0-----0--|----------0-----0------------0-----0-----|
D|----0--------0---------0--------0-----|----0--------0---------0--------0--------|
A|--------------------------------------|-----------------------------------------|
D|-5------------------4-----------------|-2------------------5--------------------|

e|--------------------------------------|----------------------------------------------|
B|-------1------------------1-----------|----------3--------------------3--------------|
G|----0-----0-----0------0-----0-----0--|-------0-----0-----0--------0-----0-----0-----|
D|-------------2------------------2-----|----4-----------4--------4-----------4--------|
A|-3------------------3-----------------|----------------------------------------------|
D|--------------------------------------|-0--------------------0-----------------------|



[Chorus]

e|----------------------------|---------------------------|---------------------------|
B|-----------0-------------0--|------------0------------0-|------------1--------------|
G|-----0------------0---------|-----0-------------0-------|---------0-----0-----------|
D|--------0-------------0-----|---------0------------0----|----0h2--------------------|
A|-10------------9------------|-7------------5------------|-3-------------------------|
D|----------------------------|---------------------------|---------------------------|
 
   C                            Am7                 Gmaj7    
e|-------------------------|---------------------|--------------------|---------------------------|
B|-------------------------|---------1-----------|---------3----------|------0----------0-----0---|
G|-----0-----0-----0-----0-|-------------0-----0-|------------0-----0-|------0--------0-------0---| x2
D|--------0-----2----------|------2---------2----|-----4---------4----|------0------0-------------|
A|--3-----------------3----|--0------------------|--------------------|---------------------------|
D|-------------------------|---------------------|-0------------------|--5-------5---------5------|

e|-----------------------------|
B|---------0-----0------0------|
G|-------0-------0------0------|
D|----0----------0-------------|
A|-----------------------------|
D|-5----------5-------5-----5--|


[Verse 3] 

e|-------------------|----------------------|-------------------|------------------------|
B|-------0-----------|---------0------------|-------1-----------|-----------3------------|
G|----------0-----0--|------------0-----0---|----------0-----0--|--------0-----0-----0---| x3
D|----0--------0-----|------0--------0------|----2--------2-----|-----4-----------4------|
A|-------------------|----------------------|-3-----------------|------------------------|
D|-5-----------------|---2------------------|-------------------|--0---------------------|


e|--------------------|---------------------|-------------------|-------------------|-----------------|
B|-------0------------|--------0------------|-------1-----------|-----------3-------|--------3--------|
G|----------0-----0---|-----------0-----0---|----------0-----0--|--------0--------0-|-----0-----0-----|
D|----0--------0------|-----0--------0------|----2--------2-----|-----4--------4----|--4-----------4--|
A|--------------------|---------------------|-3-----------------|-------------------|-----------------|
D|-5------------------|--2------------------|-------------------|--0----------------|-----------------|


[Bridge]

e|------------------------------|---------------------------|-----------------------|
B|-----0---------------0--------|-----0------------0--------|---------0-------------|
G|------------0--------------0--|-----------0------------0--|------------0-----0----|
D|--------0---------------0-----|--------0------------0-----|------0--------0-------|
A|--2--------------3------------|-5-------------9-----------|-----------------------|
D|------------------------------|---------------------------|--5--------------------|

e|-----------------0-|-----------------------|
B|----1------1-------|--------1--------------|
G|----0--------------|-----0-----0-----0-----|  x2
D|--------2----------|--------------2--------|
A|-3------------3----|--3--------------------|
D|-------------------|-----------------------|


e|--------------------------------------|-----------------------------------------|
B|-------0------------------0-----------|-------0------------------0--------------|
G|----------0-----0------------0-----0--|----------0-----0------------0-----0-----|
D|----0--------0---------0--------0-----|----0--------0---------0--------0--------|
A|--------------------------------------|-----------------------------------------|
D|-5------------------4-----------------|-2------------------5--------------------|

e|--------------------------------------|----------------------------------------------|
B|-------1------------------1-----------|----------3--------------------3--------------|
G|----0-----0-----0------0-----0-----0--|-------0-----0-----0--------0-----0-----0-----|
D|-------------2------------------2-----|----4-----------4--------4-----------4--------|
A|-3------------------3-----------------|----------------------------------------------|
D|--------------------------------------|-0--------------------0-----------------------|



[Outro]

e|----------------------------|---------------------------|---------------------------|
B|-----------0-------------0--|------------0------------0-|------------1--------------|
G|-----0------------0---------|-----0-------------0-------|---------0-----0-----------|
D|--------0-------------0-----|---------0------------0----|----0h2--------------------|
A|-10------------9------------|-7------------5------------|-3-------------------------|
D|----------------------------|---------------------------|---------------------------|
 
   C                            Am7                 Gmaj7    
e|-------------------------|---------------------|-----------------------|---------------------------|
B|-------------------------|---------1-----------|------------3----------|------0----------0-----0---|
G|-----0-----0-----0-----0-|-------------0-----0-|--------0------0-----0-|------0--------0-------0---|
D|--------0-----2----------|------2---------2----|-----4-----4------4----|------0------0-------------|
A|--3-----------------3----|--0------------------|-----------------------|---------------------------|
D|-------------------------|---------------------|-0---------------------|--5-------5---------5------|

e|----------------------------|---------------------------|---------------------------|
B|-----------0-------------0--|------------0------------0-|------------1--------------|
G|-----0------------0---------|-----0-------------0-------|---------0-----0-----------|
D|--------0-------------0-----|---------0------------0----|----0h2--------------------|
A|-10------------9------------|-7------------5------------|-3-------------------------|
D|----------------------------|---------------------------|---------------------------|
 
   C                            Am7                 Gmaj7    
e|-------------------------|---------------------|-----------------------|---------------------------|
B|-------------------------|---------1-----------|------------3----------|------0----------0-----0---|
G|-----0-----0-----0-----0-|-------------0-----0-|--------0------0-----0-|------0--------0-------0---|
D|--------0-----2----------|------2---------2----|-----4-----4------4----|------0------0-------------|
A|--3-----------------3----|--0------------------|-----------------------|---------------------------|
D|-------------------------|---------------------|-0---------------------|--5-------5---------5------|

e|----------------------------|---------------------------|------------------------------------------|
B|-----------0-------------0--|------------0------------0-|-----------0--------------0-------------0-|
G|-----0------------0---------|-----0-------------0-------|-----0--------------0-------------0-------|
D|--------0-------------0-----|---------0------------0----|--------0--------------0-------------0----|
A|-10------------9------------|-7------------7------------|-7---------------9-------------7----------|
D|----------------------------|---------------------------|------------------------------------------|


e|---------------------------|----------------------------|------------------------------------------|
B|-----------0-------------0-|-------------0------------0-|-----------0--------------0-------------0-|
G|-----0------------0--------|------0-------------0-------|-----0--------------0-------------0-------|
D|--------0-------------0----|----------0------------0----|--------0--------------0-------------0----|
A|-7-------------7-----------|--7------------4------------|-4---------------4-------------4----------|
D|---------------------------|----------------------------|------------------------------------------|


e|---------------------------|-----------------------------|-----------------------------------------|
B|-----------0-------------0-|-------------0------------0--|----------0--------------0-------------0-|
G|-----0------------0--------|------0-------------0--------|----0--------------0-------------0-------|
D|--------0-------------0----|----------0------------0-----|-------0--------------0-------------0----|
A|-5-------------5-----------|--5-------------5------------|-4---------------4------------4----------|
D|---------------------------|-----------------------------|-----------------------------------------|


e|---------------------------|-----------------------------|-----------------------------------------|
B|-----------0-------------0-|-------------0------------0--|----------0--------------0-------------0-|
G|-----0------------0--------|------0-------------0--------|----0--------------0-------------0-------|
D|--------0-------------0----|----------0------------0-----|-------0--------------0-------------0----|
A|-4-------------3-----------|--3-------------3------------|-3---------------2------------2----------|
D|---------------------------|-----------------------------|-----------------------------------------|


e|---------------------------|-----------------------------|----------------------------------------|
B|-----------0-------------0-|-------------0------------0--|----------0----------------0------------|
G|-----0------------0--------|------0-------------0--------|----0---------------0-------------------|
D|--------0-------------0----|---------0------------0------|-------0----------------0---------------|
A|-2-------------2-----------|--0-------------0------------|-0---------------0----------------------|
D|---------------------------|-----------------------------|----------------------------------------|

      D
e|-------------------------|-----------------0-------|--------------------------|
B|----------------3--------|--------------3-----3----|-----------0----------0---|
G|----------2--------2-----|-----------2-----------2-|--------0-----0-------0---|
D|-------0-----0--------0--|--------0----------------|-----0-----------0----0---|
A|----0----------2---------|-----0-------------------|--------------------------|
D|-0-----------------------|--0----------------------|--5-------------------5---|

************************************


| h   Hammer-on
| p   Pull-off
| r   Release
| >   Accented note


************************************
Suggest correction
Give kudos to tab author, rate the tab!
1 2 3 4 5
comments
print report bad tab
guest
You may want to rate the tab now too:
select rating
Wanna post a correction for this tab? Suggest correction