Oops, an error
Loading. Please wait.

Four Thieves Gone Tab

3,633 views 1 this week
1 commentread comment
1 2 3 4 5
excellent!
x 5
add to favorites
launch autoscroll
font size
0
reset
how to read this tab
guitar tuner
Tab Pro tools
  • play this tab
  • loop segment
  • change instrument
  • show fretboard
  • metronome
×
Best way to learn
"Four Thieves Gone"
Autoscroll
slow
fast
+/-
esc
set tempo
stop
Contributor
-------------------------------------------------------------------------------
			     Four Thieves Gone- The Avett Brothers
-------------------------------------------------------------------------------
Great song, but I haven’t seen it attempted yet, so here’s a rough interpretation. 
This is far from perfect so feedback is certainly appreciated.

Tabbed by: oaw19

Tuning: Standard

e|-------3-2---|---------------|-------3-2---|---------------|-3-2-0---------|
B|-3-1-0-----3-|-3-1-0-------3-|-3-1-0-----3-|-3-1-0-------3-|-------3-1-0---|
G|-------------|-------0-2-2---|-------------|-------0-2-2---|-------------2-|
D|-------------|---------------|-------------|---------------|---------------|
A|-------------|---------------|-------------|---------------|---------------|
E|-------------|---------------|-------------|---------------|---------------|
   Intro                       Four thieves gone; one woke up  Said we can’t use the songs
				we wrote  Swear I’ve heard that very line


e|---------------|-----------------------3-|-3-----2------------------|
B|-----3---0---3-|-3-----1-----0-----------|-------------3----------3-|
G|-2-2---0---0---|-------------------------|--------------------------|
D|---------------|----0-----0-----0----0---|----0-----0-----0----0----|
A|---------------|-------------------------|--------------------------|
E|---------------|-3-----3-----3----3------|-3-----3-----3-----3------|
  I can’t claim this music mine    Three thieves left,   one got smart


e|------------------|--------------|-------------|---------------------3-|
B|-3--------3-------|-1-------1----|-3-------3---|-3----1-----0----------|
G|------------------|-------2----2-|---2---2---2-|-----------------------|
D|---0----0---0---0-|---2----------|-0---0-------|----0----0-----0---0---|
A|------------------|-0---0--------|-------------|-----------------------|
E|-3----3---3---3---|--------------|-------------|-3----3-----3----3-----|
   I saw him leaving in his car                      From the road


e|-3----2---------------|-----------|-------------|--------------------------|
B|-----------3--------3-|-3-------3-|-0---------0-|-1------------3----3------|
G|----------------------|-----------|-------------|----------------2---------|
D|----0----0---0---0----|---0---0---|---2----2----|---2----------0----0------|
A|----------------------|-----------|-------------|-0---0-2-3-4--------------|
E|-3----3----3---3------|-3---3-----|-0---0-------|----------------------0-2-|
  I heard him scream       It lacks originality


The other verses are generally the same after this with a little variation and a banjo added.
comments
print report bad tab
1 comment total.
-1 reply
treytron333 wrote on April 16 2014, 03:45 pm

I think for me to rate 5 stars I have to see all the verses

And I dont mean the 4 min silence and the weird awful recording afterwards

I WANT THE REST

I want to post or [tab]
guest
You may want to rate the tab now too:
select rating
Please do not post tabs as comments. Select "correction" instead!