Oops, an error
Loading. Please wait.

Kick Drum Heart chords

version 1
version 1

Whole song

61,456 views 45 this week
2 commentsread comments
1 2 3 4 5
x 18
add to favorites
×
Save as Personal and add changes to this tab that will be seen only by you. Learn more ›
×
You can save this tab as Personal to edit and correct it or add notes. All changes will be seen only by you. Learn more »
launch autoscroll
font size
0
reset
transpose
0
reset
simplify chords
display chords
guitar tuner
edit
Autoscroll
slow
fast
+/-
esc
set tempo
stop
Author
Strumming
There is no strumming pattern for this song yet. and get +5 IQ
Artist: The Avett Brothers 
Song: Kick Drum Heart
Album: I and Love and You
Tabbed by: Don Tago
Email: recebedou@yahoo.com


Standard Tuning

Chords used:
    EADGBe
Am: 002210
C:  032010
C/B:020010
F:  133211
G:  320033


[Intro riff]
    C                 F       G
e|----------------------------------------|
B|----------------------------------------|
G|----------------------------------------|
D|----5---5-----5---5---------------------| play 2x
A|--3---3---3-3---3-----3---3-----5---5---|
E|--------------------1---1---3-3---3-----|


[Verse One - play intro riff throughout]
C                                                    F
The footprints over the snow, the fabric of all the lonely
         G                   C
Covering only the fables and hands
                                                    F
The rest is out in the cold holding the last of the season
      G
F-f-f-freezin, yeah


[Chorus]
F        G             Am
My my my heart's like a kick drum
F      G             Am
My, my heart's like a kick drum
F      G             Am
My, my heart's like a kick drum
F      G            C
My, my love's like a voice


[Interlude]
C F G
C F G

[Interlude Riff - bells transcribed to guitar]
   C                           F            G                        
e|-0-0-0-0-----0---0-0-0-0-----0----0-0-------------------0-|
B|---------3-1-------------3-1---1------3-1-3-0---3-3-1-3---| play 2x
G|----------------------------------------------------------|
D|----------------------------------------------------------| 
A|----------------------------------------------------------|
E|----------------------------------------------------------|

[Verse Two]
C                                                     F
We're walking in to the fields, were walking into the forest
              G               C
The moon is before us, up above
                                                      F
We're holding hands in the rain, saying words like “I love ya”
               G
Cha Cha do you love me? Yeah!


[Chorus]
F        G             Am
My my my heart's like a kick drum
F      G             Am
My, my heart's like a kick drum
F      G             Am
My, my heart's like a kick drum
F      G            C
My, my love's like a voice

[Interlude]
C F G

[Interlude Riff - bells transcribed to guitar]
   C                           F            G                        
e|-0-0-0-0-----0---0-0-0-0-----0----0-0-------------------0-|
B|---------3-1-------------3-1---1------3-1-3-0---3-3-1-3---| 
G|----------------------------------------------------------|
D|----------------------------------------------------------| 
A|----------------------------------------------------------|
E|----------------------------------------------------------|

[Bridge]
C C Am Em F G

F           C        C/B             Am
Mother Mary heard us approaching her door
F         C     C/B    Am
Though we didn't make a sound

[Interlude]
C F G

[Verse Three]
C
There's nothing like finding gold within the rocks hot and cold
F                             G
I'm so surprised to find more always surprised to find more
C
I wont look back anymore I left the people that do
F                         G                       C
It's not the chase that I love, it's me following you

[Chorus]
F        G             Am
My my my heart's like a kick drum
F      G             Am
My, my heart's like a kick drum
F      G             Am
My, my heart's like a kick drum
F      G             Am
My, my love's like a voice
F      G              C
My, my heart's like a kick drum

            
            
Suggest correction
Creating personal tab
Creating personal tab
You can edit any tab online and save it as your Personal.

You can edit, replace or remove any tab part or add personal notes – all changes will be seen only by you.

Personal tabs can be accessed anytime from any device, even offline.
Learn more »
comments
print report bad tab
2 comments total.
0 reply
Epiman648 10 Feb 06, 2014 09:41 AM

This tab rocks! This is the version I use for my mandolin (and guitar). I love the riff after the chorus. 5 stars!!

0 reply
frizzleliz 122 Oct 12, 2014 03:14 PM

Cha Cha do you love me? is actualy d-d-d-do you love me? I think, that's what it sounds like to me anyway

guest
You may want to rate the tab now too:
select rating
Wanna post a correction for this tab? Suggest correction