Oops, an error
Loading. Please wait.

Murder In The City ukulele

2,804 views 9 this week
1 commentread comment
1 2 3 4 5
x 8
add to favorites
×
Save as Personal and add changes to this tab that will be seen only by you. Learn more ›
×
You can save this tab as Personal to edit and correct it or add notes. All changes will be seen only by you. Learn more »
launch autoscroll
font size
0
reset
transpose
0
reset
simplify chords
display chords
guitar tuner
edit
Autoscroll
slow
fast
+/-
esc
set tempo
stop
Strumming
There is no strumming pattern for this song yet. and get +5 IQ
Capo: 3

Intro: C, Cmaj7, C, Cmaj7, F


   C Chord- Hit the bass string and follow with an upstroke, downstroke, upstroke rhythm

E||-----------------------------------|----------------------------------|
B||-----------------------------------|--0---/\/-------------------------|
G||-----------------------------------|----------------------------------|
D||-----------------------------------|----------------------------------|
A||--3---/\/(up down up)--------------|----------------------------------|
E||-----------------------------------|----------------------------------|
 

 Hold the note for one extra beat      Open F Chord


E||-----------------------------------|----------------------------------|
B||-------------0~0-/\/---------------|------------------0---------------|
G||-----------------------------------|--2/\/----------------0-----2-----|
D||---2-/\----------------------------|-----------3/\--------------------|
A||-----------------------------------|----------------------------------|
E||-----------------------------------|----------------------------------|

Repeat


Body:

C, C/B, C/A, C/G, F, G, C

Am, G, C

Am, G, F, C, G, C



C        C/B             C/A        C/G
If I get murdered in the city
F           G            C
Don’t go revengin' in my name
C        C/B             C/A        C/G
One person dead from such is plenty
F           G             C
No need to go get locked away


Am      G         C
When I leave your arms
Am             G         C
The things that I think of
Am         G         C
No need to get over alarmed
Am   G     C
I’m comin' home

(Repeats Intro)


C        C/B             C/A        C/G
I wonder which brother is better
F           G            C
Which one our parents love the most
C        C/B             C/A        C/G
I sure did get in lots of trouble
F              G            C
They seemed to let the other go


Am      G                    C
A tear fell from my father’s eyes
Am         G                 C
I wondered what my dad would say
Am        G
He said I love you
        F            C                G          C
And I’m proud of you both, in so many different ways

(Repeats Intro)

C        C/B             C/A        C/G
If I get murdered in the city
F              G            C
Go read the letter in my desk
C        C/B             C/A        C/G
Don’t bother with all my belongings
F              G            C
But pay attention to the list


Am         G                 C
Make sure my sister knows I loved her
Am         G                 C
Make sure my mother knows the same
Am       G                  F           C
Always remember, there was nothing worth sharing
         C                G         C
Like the love that let us share our name
Am       G                  F           C
Always remember, there was nothing worth sharing
         C                G         C
Like the love that let us share our name

            
            
Suggest correction
Creating personal tab
Creating personal tab
You can edit any tab online and save it as your Personal.

You can edit, replace or remove any tab part or add personal notes – all changes will be seen only by you.

Personal tabs can be accessed anytime from any device, even offline.
Learn more »
comments
print report bad tab
1 comment total.
0 reply
Dlight 10 Jul 19, 2014 04:18 PM

It's not a ukulele tab.........................

guest
Wanna post a correction for this tab? Suggest correction