Oops, an error
Loading. Please wait.

Murder In The City Tab

version 4
version 4
27,401 views 60 this week
no commentswrite comment
1 2 3 4 5
excellent!
x 19
add to favorites
launch autoscroll
font size
0
reset
how to read this tab
guitar tuner
Tab Pro tools
  • play this tab
  • loop segment
  • change instrument
  • show fretboard
  • metronome
×
Best way to learn
"Murder In The City"
Autoscroll
slow
fast
+/-
esc
set tempo
stop
Contributor
Difficulty
Capo
intermediate
3rd fret
This is my first tab hope you enjoy. If their is any questions you can reach me at 
wellup40@yahoo.com

Tuning : Standard

capo on 3rd (can be played anywhere but if you want to match the song) not perfect but 
it will work for playing it alone. I learned this by ear so bear with.

-----------------------------------------------------------------------------

Intro:
     C
e :---------0-------------------------------0-----------0-------|
B :-----1-------1---1-------------------1-------------1---1-----|
G :-------0---4---4-----0---0-0-----0-2---2-----2-2-0-0-----0---|
D :-------------------2---2-----0h2-----------3---3-2-2-------2-|  X2
A :---3---------------3---------------3-------3---3-3-3---------|
E :---------------------------------------------------0---------|

Verse 1:
      C       Em     Am       G      F        G     C
e :-------0-------0--------0----3----------1------1-------0-----0--|
B :---1-------0--------1----------0----1--------0-----1-----1------|
G :-----0-------0--------2---------------2--------0-----0-----0----|
D :----------------------------------------------------------------| X2
A :-3-------2--------0------------------------------3--------------|
E :---------------------------3------1--------3--------------------|

 Am      G         C
When I leave your arms.......
 Am     G         F       C  Am   G
No need to get over alarmed, I'm coming-

  home
e :---------0-------------------------------0-----------0-------|
B :-----1-------1---1-------------------1-------------1---1-----|
G :-------0---4---4-----0---0-0-----0-2---2-----2-2-0-0-----0---|
D :-------------------2---2-----0h2-----------3---3-2-2-------2-|  X2
A :---3---------------3---------------3-------3---3-3-3---------|
E :---------------------------------------------------0---------|

Verse 2:
      C       Em     Am       G      F        G     C
e :-------0-------0--------0----3----------1------1-------0-----0--|
B :---1-------0--------1----------0----1--------0-----1-----1------|
G :-----0-------0--------2---------------2--------0-----0-----0----|
D :----------------------------------------------------------------| X2
A :-3-------2--------0------------------------------3--------------|
E :---------------------------3------1--------3--------------------|




Am     G                   C
A tear fell from my father’s eyes
Am         G                 C
I wondered what my dad would say
Am        G
He said I love you
         F           C            Am     G
And I’m proud of you both, in so many different-

ways
e :---------0-------------------------------0-----------0-------|
B :-----1-------1---1-------------------1-------------1---1-----|
G :-------0---4---4-----0---0-0-----0-2---2-----2-2-0-0-----0---|
D :-------------------2---2-----0h2-----------3---3-2-2-------2-|  X2
A :---3---------------3---------------3-------3---3-3-3---------|
E :---------------------------------------------------0---------|

Verse 3:
      C       Em     Am       G      F        G     C
e :-------0-------0--------0----3----------1------1-------0-----0--|
B :---1-------0--------1----------0----1--------0-----1-----1------|
G :-----0-------0--------2---------------2--------0-----0-----0----|
D :----------------------------------------------------------------| X2
A :-3-------2--------0------------------------------3--------------|
E :---------------------------3------1--------3--------------------|

Am           G               C
Make sure my sister knows I loved her
Am           G                C
Make sure my mother knows the same
Am       G                F             C
Always remember, there is nothing worth sharing
Am                       G            C
Like the love that let us share our name
Am       G                F             C
Always remember, there is nothing worth sharing
Am                       G
Like the love that let us share our-

name
e :---------0-------------------------------0-----------0-------|
B :-----1-------1---1-------------------1-------------1---1-----|
G :-------0---4---4-----0---0-0-----0-2---2-----2-2-0-0-----0---|
D :-------------------2---2-----0h2-----------3---3-2-2-------2-|
A :---3---------------3---------------3-------3---3-3-3---------|
E :---------------------------------------------------0---------|

e :---------0-------------------------------0-------|
B :-----1-------1---1-------------------1-----------|
G :-------0---4---4-----0---0-0-----0-2---2-----2-2-|
D :-------------------2---2-----0h2-----------3---3-|
A :---3---------------3---------------3-------3---3-|
E :-------------------------------------------------|

Finish with a strong C

-----------------------------------------------------------------------------

And thats it just listen to the song on parts you dont get and you can work them out.
comments
print report bad tab
I want to post or [tab]
guest
You may want to rate the tab now too:
select rating
Please do not post tabs as comments. Select "correction" instead!