Oops, an error
Loading. Please wait.

Vanity Chords

version 3
version 3

Whole song

4,937 views 18 this week
2 commentsread comments
1 2 3 4 5
excellent!
x 15
add to favorites
launch autoscroll
font size
0
reset
transpose
0
reset
display chords
guitar tuner
Tab Pro tools
  • play this tab
  • loop segment
  • change instrument
  • show fretboard
  • metronome
×
Best way to learn
"Vanity"
Autoscroll
slow
fast
+/-
esc
set tempo
stop
Contributor
Avett Brothers
Vanity
-----------------------

C        Am           F
I've got something to say
         C       Am       G       F
But it's all vanity, it's all vanity
C         Am           F
I found a tune I could play
         C       Am       G       F
But it's all vanity, it's all vanity


G            C
Call off the guards
G            C
Call off the search
      G                 C
Their heads are chopped off
        G         Am
They're running in circles
        F          G
They're running in circles


C        Am           F
I have a plan for the day 
         C       Am       G       F
But it's all vanity, it's all vanity
         C            Am        F
I've got love pouring out of my veins
         C      Am        G       F
But it's all vanity, it's all vanity


G            C
Call off the guards
G            C
Call off the search
      G                 C
Their heads are chopped off
        G         Am
They're running in circles
        F          G
They're running in circles
        G         Am
They're running in circles
        F          G
They're running in circles


Bridge chords and riff (repeat as desired):

          Cm         Cm        Cm       Bb      Ab      G
e|----------------------------------------------------------   ||
B|----------------------------------------------------------   ||
G|---------------------------------------------------------- . ||
D|----1-2-1------1-2-1------1-2-1-------1-------1----------- . ||
A|--3----------3----------3-------3-1-3---3-1-3---3-1-3-2---   ||
E|----------------------------------------------------------   ||


Solo Ending Chords:   D5     G


C        Am           F
I've got something to say
         C       Am       G       F
But it's all vanity, it's all vanity
         C            Am        F
I’ve got love pouring out of my veins
         C       Am       G       F
But it's all vanity, it's all vanity

comments
print report bad tab
2 comments total.
0 reply
pj100600 wrote on January 1 2014, 12:55 pm, edited at 12:56 pm

<<removed>>

0 reply
pj100600 wrote on January 1 2014, 12:56 pm

Sorry Jacked up the formatting above.

Great tab!
One thing,

I think the tab should be like this:

e|-------------------------------------------------------------   ||
B|------------------------------------------------------------- ||
G|------------------------------------------------------------- ||
D|----1-2-1------1-2-1------1-2-1-------1-------1-------------- ||
A|--3----------3----------3-------3-1-3---3-1-3---3-1-3-2-5-10- ||
E|------------------------------------------------------------- ||

I want to post or [tab]
guest
You may want to rate the tab now too:
select rating
Please do not post tabs as comments. Select "correction" instead!