Oops, an error
Loading. Please wait.

Weight Of Lies chords

version 4
version 4

Whole song

23,764 views 6 this week
5 commentsread comments
1 2 3 4 5
x 5
add to favorites
×
Save as Personal and add changes to this tab that will be seen only by you. Learn more ›
×
You can save this tab as Personal to edit and correct it or add notes. All changes will be seen only by you. Learn more »
launch autoscroll
font size
0
reset
transpose
0
reset
simplify chords
display chords
guitar tuner
edit
Autoscroll
slow
fast
+/-
esc
set tempo
stop
Strumming
There is no strumming pattern for this song yet. and get +5 IQ
This is one of my favorite songs. Its pretty  simple too. This tab is 100% right! 
Whats going on is one guitar is strumming chords while another guitar is 
fingerpicking the chords. Very easy stuff. This is my first tab by the way so 
sorry if its not the best layout.

CAPO ON 2nd FRET!!!

Intro: 
     G    GM7   G6    G       C    CM7  Cadd9   C
e|---3-----0-----3----3-------0-----0-----0-----0-----------------|
B|---3-----3-----3----3-------1-----0-----3-----1-----------------|
G|---0-----0-----0----0-------0-----0-----0-----0-----------------|   
D|---0-----4-----2----0-------2-----2-----2-----2-----------------|
A|---x-----x-----x----x---2-2h3-----3-----3-----3-----------------|
E|---3-----3-----3----3-------x-----x-----x-----x-----------------|

Verse (same as intro)
     G    GM7   G6    G       C    CM7  Cadd9   C
e|---3-----0-----3----3-------0-----0-----0-----0-----------------|
B|---3-----3-----3----3-------1-----0-----3-----1-----------------|
G|---0-----0-----0----0-------0-----0-----0-----0-----------------|   
D|---0-----4-----2----0-------2-----2-----2-----2-----------------|
A|---x-----x-----x----x---2-2h3-----3-----3-----3-----------------|
E|---3-----3-----3----3-------x-----x-----x-----x-----------------|

Chorus
     G     E    C    D       G     E    D
e|---3-----0----0----2-------3-----0----2--------------------------|
B|---3-----0----1----3-------3-----0----3--------------------------|
G|---0-----1----0----2-------0-----1----2--------------------------|   
D|---0-----2----2----0-------0-----2----0--------------------------|
A|---x-----2----3----x-------x-----2----x--------------------------|
E|---3-----0----x----x-------3-----0----x--------------------------|
   The weight of lies...    Nothing happens here...

     G     E    C    D          G     E    D?
e|---3-----0----0----2----------3-----0----2-----------------------|
B|---3-----0----1----3----------3-----0----1-----------------------|
G|---0-----1----0----2----------0-----1----2-----------------------|   
D|---0-----2----2----0----------0-----2----0-----------------------|
A|---x-----2----3----x----------x-----2----x-----------------------|
E|---3-----0----x----x----------3-----0----x-----------------------|
    When you run...        Lies don't need an aeroplane...

Lick while he hums at the end of chorus
e|-----------------------------------------------------------------|
B|-----------------------------------------------------------------|
G|--2/4\2-2p0---0--------------------------------------------------|   
D|------------2----------------------------------------------------|
A|-----------------------------------------------------------------|
E|-----------------------------------------------------------------|
   Mmmmmm...

Thats it! The outro is the same as the chorus. Very easy fun song. Jam out some 
and improvise during the outro too! If you have any corrections for me drop me an 
email at rhcps@comcast.net



            
            
Suggest correction
Creating personal tab
Creating personal tab
You can edit any tab online and save it as your Personal.

You can edit, replace or remove any tab part or add personal notes – all changes will be seen only by you.

Personal tabs can be accessed anytime from any device, even offline.
Learn more »
comments
print report bad tab
5 comments total. Showing first comments.
0 reply
p_flash 62 Oct 25, 2009 11:36 AM

I think your D? is called a D7.

0 reply
p_flash 62 Oct 25, 2009 12:04 PM

I like your tab -- really, it's the best one on here -- but the G, GM7, G6, ... chords are wonky! When I mouse over them, some very strange results come up. But as for the tab that you entered yourself, it's great!

0 reply
furyhead 10 Nov 25, 2009 10:25 AM

hey you have an E chord labeled as an A minor chord.
simple mistake, just pointing it out.
sick tab tho. i'm a huge fan of easy jam shit like this.

guest
You may want to rate the tab now too:
select rating
Wanna post a correction for this tab? Suggest correction