Oops, an error
Loading. Please wait.

4 Chords Bass

version 1
version 1

Whole song

4,940 views 33 this week
2 commentsread comments
1 2 3 4 5
x 5
add to favorites
launch autoscroll
font size
0
reset
guitar tuner
×
Best way to learn
"4 Chords"
Autoscroll
slow
fast
+/-
esc
set tempo
stop
Difficulty
novice
4 Chords, Axes of Awesome


Tabbed By : D. Browne

Chorus (the whole thing is the same)
G|-----------------------------------------------------------------------------|
D|-----------------------------------------------------------------------------|
A|---3-------------------------------------------------------------------------|
E|----------3-----5------1-----------------------------------------------------|
Chorus x100
Suggest correction
comments
print report bad tab
2 comments total.
0 reply
LIOwolverine 10 Aug 22, 2013 04:03 AM

The new version is

G|-----------------------------------------------------------------------------
D|---8-------------------------------------------------------------------------
A|----------8-----10-----6-----------------------------------------------------
E|-----------------------------------------------------------------------------

Plus it will play it if the notes are played for times.

0 reply
LIOwolverine 10 Aug 24, 2013 09:42 PM

Ooops actually its 7D 7A 9A 5A

guest
You may want to rate the tab now too:
select rating
Wanna post a correction for this tab? Suggest correction