Oops, an error
Loading. Please wait.

Flim Tab

4,019 views 1 this week
no commentswrite comment
1 2 3 4 5
please rate
add to favorites
launch autoscroll
font size
0
reset
how to read this tab
guitar tuner
Tab Pro tools
  • play this tab
  • loop segment
  • change instrument
  • show fretboard
  • metronome
×
Best way to learn
"Flim"
Autoscroll
slow
fast
+/-
esc
set tempo
stop
Contributor
left hand piano is under the Right hand

official website- http://www.thebadplus.com/

arpeggio part(right hand):
repeat each arpeggio twice:

e|---------------17--18-----------------15----22----|
B|---------15----------------13---16----------------|
G|----15--------------------------------------------|
D|--------------------------------------------------|
A|--------------------------------------------------|
E|--------------------------------------------------|

(Left hand)
e|----------------------------------------|
B|--------6----------------6---6----------|
G|--------7---7---8--------8---7----------|
D|------------8---8-----------------------|
A|----------------------------------------|
E|----------------------------------------|

melodic part(right hand):

e|--25---23---22----18---17-18-17-18-17-18-----------15--22--18-18-----|
B|------------------------------------------18---16-----------------18-|
G|---------------------------------------------------------------------|
D|---------------------------------------------------------------------|
A|---------------------------------------------------------------------|
E|---------------------------------------------------------------------|

(left hand)
e|---------------------------------------------|
B|--6------------------------------------------|
G|--7----3----7--------8-----------------------|
D|--8----5----8-- 5----8---8-----8----3--------|
A|-------6--------6--------8-----6----3--------|
E|---------------------------------------------|


bass part(left hand) 1:
e|-------------------------------------------------------------|
B|-------------------------------------------------------------|
G|---5-------------------7--8-10--8---8--5---------------------|
D|------5---8---5---8-----------------------6--6-5-6-5--6--3---|
A|-------------------------------------------------------------|
E|-------------------------------------------------------------|

(Right hand)
e|-------- 6-------6----4------|
B|--8------6-------4----7------|
G|--7--------------------------|
D|-----------------------------|
A|-----------------------------|
E|-----------------------------|

bass part 2(left hand):
e|-----------------------------------------------------------|
B|--------------------------------------5--7--5--------------|
G|---5-------------------7--8-10--8---8----------5---3-------|
D|------5---8---5---8----------------------------------3-----|
A|-----------------------------------------------------------|
E|-----------------------------------------------------------|

(Right hand)
e|-------- 6-------6----8---------|
B|--8------6-------4----8---------|
G|--7-----------------------------|
D|--------------------------------|
A|--------------------------------|
E|--------------------------------|
comments
We did not receive enough feedback on this tab! Please rate:
print report bad tab
1 2 3 4 5
I want to post or [tab]
guest
You may want to rate the tab now too:
select rating
Please do not post tabs as comments. Select "correction" instead!