Oops, an error
Loading. Please wait.

Latinia Tab

1,113 views 1 this week
1 commentread comment
1 2 3 4 5
2 more votes to show rating
add to favorites
launch autoscroll
font size
0
reset
how to read this tab
guitar tuner
Autoscroll
slow
fast
+/-
esc
set tempo
stop
Help us to improve Ultimate-Guitar.com Take our survey!
×
Author
Difficulty
novice
Bambi Molesters - Latinia
Tabbed by: Neil R. Rose (neil.damage.done@gmail.com)

Basics of 'Latinia'. Listen to the song for timing and the order of the parts. Great 
to just jam out to. E-mail me for corrections or completions!

e|-------0-----0-----0-----0-----0-----0-----0-----0-----0-----0----0-----0--|
B|-----2-----2-----2-----2-----2-----2-----2-----2-----2-----2----2-----2----|
G|---1-----1-----1-----1-----2-----2-----2-----2-----3-----3----3-----3------|
D|---------------------------------------------------------------------------|
A|---------------------------------------------------------------------------|
E|---------------------------------------------------------------------------|

e|---------------------------------------------------------------------------|
B|---------------------------------------------------------------------------|
G|---------------------------------------------------------------------------|
D|---------------------------------------------------------------------------|
A|-------------2----------------2--------0-0--3-3--2--0-0--------------------|
E|--0-0---4-4--------0-0--4-4--------------------------------3-3--1--0-------|

    E        F       G  F  E   F
e|--0-0-0----111-1---3--1--0---1~-------------------------------------------|
B|--0-0-0----111-1---3--1--0---1~-------------------------------------------|
G|--1-1-1----222-2---4--2--1---2~-------------------------------------------|
D|--2-2-2----333-3---5--3--2---3~-------------------------------------------|
A|--2-2-2----333-3---5--3--2---3~-------------------------------------------|
E|--0-0-0----111-1---3--1--0---1~-------------------------------------------|

e|---4------4------5------5------4-----4------5-5-5-5--7--5------------------|
B|-----5------5------6------6------5-----5----6-6-6-6--8--6------------------|
G|-------4------4------5------5------4-----4--5-5-5-5--7--5------------------|
D|---------------------------------------------------------------------------|
A|---------------------------------------------------------------------------|
E|---------------------------------------------------------------------------|

e|---4-----4---------------5\4-----------------------------------------------|
B|-----5-----5---------5/6-----5---------------------------------------------|
G|-------4-----4---4/5------------4------------------------------------------|
D|---------------------------------------------------------------------------|
A|---------------------------------------------------------------------------|
E|---------------------------------------------------------------------------|

e|-------------------------------------------------------0-------------------|
B|-------------------------------------------------------0-------------------|
G|-------------------------------------------------------1-------------------|
D|--2--3-3/5--3--2---------------------------------------2-------------------|
A|--------------------2--3-3/5--3--2---------------------2-------------------|
E|-------------------------------------0--1-1h3--1-1--0--0-------------------|

e|-12-12--12--12-12-----13--13--13---15--15--13--12-12--12-------------------|
B|-12-12--12--12-12-----13--13--13---15--15--13--12-12--12-------------------|
G|-13-13--13--13-13-----14--14--14---15--15--14--13-13--13-------------------|
D|---------------------------------------------------------------------------|
A|---------------------------------------------------------------------------|
E|---------------------------------------------------------------------------|
Suggest correction
Give kudos to tab author, rate the tab!
1 2 3 4 5
comments
print report bad tab
1 comment total.
0 reply
neilmcleod 10 Mar 04, 2016 12:36 AM

Thanks for this tab. Lots of bands cover this tune and it's one of my favourites

guest
You may want to rate the tab now too:
select rating
Wanna post a correction for this tab? Suggest correction