Oops, an error
Loading. Please wait.

Makes Us Feel Younger Tab

13 views 3 this week
no commentswrite comment
1 2 3 4 5
3 more votes to show rating
add to favorites
launch autoscroll
font size
0
reset
how to read this tab
guitar tuner
Autoscroll
slow
fast
+/-
esc
set tempo
stop
Help us to improve Ultimate-Guitar.com Take our survey!
×
Author
Difficulty
intermediate
[Intro]
e|--1----1----3-----------------1----1----3----------------------------------|
B|--3----1----1-----------------3----1----1----------------------------------|
G|--2----2----0-----------------2----2----0----------------------------------|
D|--0----3----2-----------------0----3----2----------------------------------|
A|--0----3----3-----------------0----3----3----------------------------------|
E|---------------------------------------------------------------------------|

[Verse]
   Come alive and let me in           If you don't mind we're just feeding the hunger
e|--1-------------1------3-----------------1-----------------------1-----------3--------|
B|--3-------------1------1-----------------3-----------------------1-----------1--------|
G|--2-------------2------0-----------------2-----------------------2-----------0--------|
D|--0-------------3------2-----------------0-----------------------3-----------2--------|
A|--0-------------3------3-----------------0-----------------------3-----------3--------|
E|--------------------------------------------------------------------------------------|
 Call me back if you feel it again   I don't know why but it makes us feel younger
e|--1-------------1------3-----------------1-----------------------1-----------3--------|
B|--3-------------1------1-----------------3-----------------------1-----------1--------|
G|--2-------------2------0-----------------2-----------------------2-----------0--------|
D|--0-------------3------2-----------------0-----------------------3-----------2--------|
A|--0-------------3------3-----------------0-----------------------3-----------3--------|
E|--------------------------------------------------------------------------------------|
  We don't know why but it makes us feel younger
e|--1-------------1------3-----------------1-----------------------1-----------3--------|
B|--3-------------1------1-----------------3-----------------------1-----------1--------|
G|--2-------------2------0-----------------2-----------------------2-----------0--------|
D|--0-------------3------2-----------------0-----------------------3-----------2--------|
A|--0-------------3------3-----------------0-----------------------3-----------3--------|
E|--------------------------------------------------------------------------------------|

[Guitar 2]                                
e|-----------------------------------------5-----------------------------8--------------|
B|-----------------------------------------6--------------------------6--8--6-----------|
G|-----------------------------------------7-------------------2/7-5-----------7--------|
D|-----------------------------------------7--------------------------------------------|
A|--------------------------------------------------------------------------------------|
E|--------------------------------------------------------------------------------------|
We don't know why but it makes us feel younger
e|--1-------------1------3--------------------------------------------------------------|
B|--3-------------1------1--------------------------------------------------------------|
G|--2-------------2------0--------------------------------------------------------------|
D|--0-------------3------2--------------------------------------------------------------|
A|--0-------------3------3--------------------------------------------------------------|
E|--------------------------------------------------------------------------------------|

[Chorus]
     I'm out of my mind won't you say you want it tell me you want it
e|---3-------------1--------------1-----------------------------------------------------|
B|---1-------------3--------------1-----------------------------------------------------|
G|---0-------------2--------------2-----------------------------------------------------|
D|---2-------------0--------------3-----------------------------------------------------|
A|---3-------------0--------------3-----------------------------------------------------|
E|--------------------------------------------------------------------------------------|
     In our disguise won't you say you want it
e|---0---------1---------------3--------------------------------------------------------|
B|---1---------3---------------1--------------------------------------------------------|
G|---2---------2---------------0--------------------------------------------------------|
D|---2---------0---------------2--------------------------------------------------------|
A|---0---------0---------------3--------------------------------------------------------|
E|--------------------------------------------------------------------------------------|

[Verse]
   Come alive and let me in           If you don't mind we're just feeding the hunger
e|--1-------------1------3-----------------1-----------------------1-----------3--------|
B|--3-------------1------1-----------------3-----------------------1-----------1--------|
G|--2-------------2------0-----------------2-----------------------2-----------0--------|
D|--0-------------3------2-----------------0-----------------------3-----------2--------|
A|--0-------------3------3-----------------0-----------------------3-----------3--------|
E|--------------------------------------------------------------------------------------|
 Call me back if you feel it again   I don't know why but it makes us feel younger
e|--1-------------1------3-----------------1-----------------------1-----------3--------|
B|--3-------------1------1-----------------3-----------------------1-----------1--------|
G|--2-------------2------0-----------------2-----------------------2-----------0--------|
D|--0-------------3------2-----------------0-----------------------3-----------2--------|
A|--0-------------3------3-----------------0-----------------------3-----------3--------|
E|--------------------------------------------------------------------------------------|
  We don't know why but it makes us feel younger
e|--1-------------1------3-----------------1-----------------------1-----------3--------|
B|--3-------------1------1-----------------3-----------------------1-----------1--------|
G|--2-------------2------0-----------------2-----------------------2-----------0--------|
D|--0-------------3------2-----------------0-----------------------3-----------2--------|
A|--0-------------3------3-----------------0-----------------------3-----------3--------|
E|--------------------------------------------------------------------------------------|

[Guitar 2]                                
e|-----------------------------------------5--------------------------------8--5--------|
B|-----------------------------------------6--------------------------6--8--------------|
G|-----------------------------------------7-------------------2/7-5--------------------|
D|-----------------------------------------7--------------------------------------------|
A|--------------------------------------------------------------------------------------|
E|--------------------------------------------------------------------------------------|
We don't know why but it makes us feel younger
e|--1-------------1------3--------------------------------------------------------------|
B|--3-------------1------1--------------------------------------------------------------|
G|--2-------------2------0--------------------------------------------------------------|
D|--0-------------3------2--------------------------------------------------------------|
A|--0-------------3------3--------------------------------------------------------------|
E|--------------------------------------------------------------------------------------|

[Chorus]
     I'm out of my mind won't you say you want it tell me you want it
e|---3-------------1--------------1-----------------------------------------------------|
B|---1-------------3--------------1-----------------------------------------------------|
G|---0-------------2--------------2-----------------------------------------------------|
D|---2-------------0--------------3-----------------------------------------------------|
A|---3-------------0--------------3-----------------------------------------------------|
E|--------------------------------------------------------------------------------------|
     In our disguise won't you say you want it
e|---0---------1---------------3--------------------------------------------------------|
B|---1---------3---------------1--------------------------------------------------------|
G|---2---------2---------------0--------------------------------------------------------|
D|---2---------0---------------2--------------------------------------------------------|
A|---0---------0---------------3--------------------------------------------------------|
E|--------------------------------------------------------------------------------------|

(Verse chords during outro. This lead plays overtop through the fade out)
[Outro]
e|--------------------------------------------------------------------------------------|
B|-----10-8--10-------------------------------------------------------------------------|
G|---7----------9b10br9--7--5-7----5----------------------------------------------------|
D|------------------------------7----5---3----------------------------------------------|
A|------------------------------------------5-------------------------------------------|
E|--------------------------------------------------------------------------------------|


************************************

| /   Slide up
| b   Bend
| br  Bend release

************************************
Suggest correction
Give kudos to tab author, rate the tab!
1 2 3 4 5
comments
print report bad tab
guest
You may want to rate the tab now too:
select rating
Wanna post a correction for this tab? Suggest correction