Oops, an error
Loading. Please wait.

The Power Tab

version 1
version 1

Solo

Whole song

4 views 1 this week
no commentswrite comment
1 2 3 4 5
3 more votes to show rating
add to favorites
launch autoscroll
font size
0
reset
how to read this tab
guitar tuner
Autoscroll
slow
fast
+/-
esc
set tempo
stop
Help us to improve Ultimate-Guitar.com Take our survey!
×
Author
Difficulty
intermediate
[Solo]

e|------------------------------------------------9--12b14b12------------------------------|
B|----------------------------9--12b14-----12b14---------------12b14r12b14--9------9-------|
G|--9---------9--11~----11----------------------------------------------------11-----8-----|
D|----11-----------------------------------------------------------------------------------|
A|-----------------------------------------------------------------------------------------|
E|-----------------------------------------------------------------------------------------|

e|---------------------------------------------------12b14r12--9---------------------------|
B|-----------------------------9--12b14-pb14r12--9----------------12b14--------------------|
G|----6--4--6--8--9--6----/11--------------------------------------------------------------|
D|-----------------------------------------------------------------------------------------|
A|-----------------------------------------------------------------------------------------|
E|-----------------------------------------------------------------------------------------|



************************************

| b   Bend
| r   Release
| ~   Vibrato
| pb  Pre-bend
| /   Slide up

************************************
Suggest correction
Give kudos to tab author, rate the tab!
1 2 3 4 5
comments
print report bad tab
guest
You may want to rate the tab now too:
select rating
Wanna post a correction for this tab? Suggest correction