Oops, an error
Loading. Please wait.

The Power Tab

version 1
version 1

Whole song

1 view 1 this week
no commentswrite comment
1 2 3 4 5
3 more votes to show rating
add to favorites
launch autoscroll
font size
0
reset
how to read this tab
guitar tuner
Autoscroll
slow
fast
+/-
esc
set tempo
stop
Help us to improve Ultimate-Guitar.com Take our survey!
×
Author
Difficulty
intermediate
[Intro]
Probably finger picked
e|---------------------------------------------------------------------------|
B|---------------------------------------------------------------------------|
G|-----9---8--9-----8----8--6--4-----6--4-6--8--9---8--9---------------------|
D|-----11--9--11----9----9--6--4-----7--6-7--9--11--9--11--------------------|
A|-------------------------------4-------------------------------------------|
E|---9-----------------7-----------5-----------------------------------------|

e|---------------------------------------------------------------------------|
B|---------------------------------------------------------------------------|
G|-----9---8--9-----8----8--6--4-----6--4-6--8--9---8--9---------------------|
D|-----11--9--11----9----9--6--4-----7--6-7--9--11--9--11--------------------|
A|-------------------------------4-------------------------------------------|
E|-7/9-----------------7-----------5-----------------------------------------|

[Verse]
e|---------------------------------------------------------------------------|
B|---------------------------------------------------------------------------|
G|-----9---8--9-----8----8--6--4-----6--4-6--8--9---8--9---------------------|
D|-----11--9--11----9----9--6--4-----7--6-7--9--11--9--11--------------------|
A|-------------------------------4-------------------------------------------|
E|---9-----------------7-----------5-----------------------------------------|

e|---------------------------------------------------------------------------|
B|---------------------------------------------------------------------------|
G|-----9---8--9-----8----8--6--4-----6--4-6--8--9---8--9---------------------|
D|-----11--9--11----9----9--6--4-----7--6-7--9--11--9--11--------------------|
A|-------------------------------4-------------------------------------------|
E|-7/9-----------------7-----------5-----------------------------------------|

e|----------------7----------------------------------------------------------|
B|-------7--9--10-------10----9----------------5----------0------------------|
G|-8--9-----------------------------9--8-------6----------1------------------|
D|---------------------------------------------7----------2------------------|
A|---------------------------------------------7----------2------------------|
E|-7--7--7--7--7--7--7--7--7--7--7--7--7--7----5----------0------------------|

e|----------------7----------------------------------------------------------|
B|-------7--9--10-------10----9----------------5----------0------------------|
G|-8--9-----------------------------9--8-------6----------1------------------|
D|---------------------------------------------7----------2------------------|
A|---------------------------------------------7----------2------------------|
E|-7--7--7--7--7--7--7--7--7--7--7--7--7--7----5----------0------------------|

[Chorus]
the power that's making me hurt   the power that's making me hurt
e|--4---------------------------------4--------------------------------------|
B|--5----------------------0----------5----------------------0---------------|
G|--6----------------------1----------6----------------------1---------------|
D|--6----------------------2----------6----------------------2---------------|
A|--4----------------------2----------4----------------------2---------------|
E|-------------------------0---------------------------------0---------------|
the power that's making me hurt   the power that's making me hurt
e|--4---------------------------------4--------------------------------------|
B|--5----------------------0----------5----------------------4---------------|
G|--6----------------------1----------6----------------------4---------------|
D|--6----------------------2----------6----------------------4---------------|
A|--4----------------------2----------4----------------------2---------------|
E|-------------------------0-------------------------------------------------|

[Solo]
e|------------------------------------------------9--12b14b12------------------------------|
B|----------------------------9--12b14-----12b14---------------12b14r12b14--9------9-------|
G|--9---------9--11~----11----------------------------------------------------11-----8-----|
D|----11-----------------------------------------------------------------------------------|
A|-----------------------------------------------------------------------------------------|
E|-----------------------------------------------------------------------------------------|

e|---------------------------------------------------12b14r12--9---------------------------|
B|-----------------------------9--12b14-pb14r12--9----------------12b14--------------------|
G|----6--4--6--8--9--6----/11--------------------------------------------------------------|
D|-----------------------------------------------------------------------------------------|
A|-----------------------------------------------------------------------------------------|
E|-----------------------------------------------------------------------------------------|

[Outro]
e|--------16--------16-----16----------------------------------------------------|
B|------------------------------------16---------16------16----------------------|
G|--14/16----14/16------16-----11/13------11/13------13--------------------------|
D|-------------------------------------------------------------------------------|
A|-------------------------------------------------------------------------------|
E|-------------------------------------------------------------------------------|


************************************

| /   Slide up
| b   Bend
| r   Release
| ~   Vibrato
| pb  Pre-bend

************************************
Suggest correction
Give kudos to tab author, rate the tab!
1 2 3 4 5
comments
print report bad tab
guest
You may want to rate the tab now too:
select rating
Wanna post a correction for this tab? Suggest correction