Oops, an error
Loading. Please wait.

Back To Memphis intro tab

version 1
version 1

Intro

  • This is just the Intro from Back To Memphis By The... Show more

Interactive

19 views 1 this week
no commentswrite comment
1 2 3 4 5
3 more votes to show rating
add to favorites
×
Save as Personal and add changes to this tab that will be seen only by you. Learn more ›
×
You can save this tab as Personal to edit and correct it or add notes. All changes will be seen only by you. Learn more »
launch autoscroll
font size
0
reset
how to read this tab
guitar tuner
edit
Autoscroll
slow
fast
+/-
esc
set tempo
stop
Author
Difficulty
About this tab version
This is just the Intro from Back To Memphis By The Band (Moondog Matinee version). It should give you enough info to make a decent fist of the rest of the song. Was this info helpful? Yes No
Back To Memphis By The Band - Intro Only

[Intro]


                   A
E |-------------||---------------|------------------------------|||
B |-------------||---------------|------------------------------|||
G |--------2----||o--------------|--------------------------2--o|||
D |-------------||o2--2--2--2----|--2-----2-----2--------------o|||
A |--3h-4-------||-0--0--0--0----|--0-----0-----0-----3h-4------|||
E |-------------||---------------|------------------------------|||


E||---------------------------|---------------------------||
B||---------------------------|---------------------------||
G||o------------5-------------|--------------5-----------o||
D||o2-----4-----5-----4--2L---|--2--2--4-----5-----4--2--o||
A||-0-----0-----0-----0--0L---|--0--0--0-----0-----0--0---||
E||---------------------------|---------------------------||

This next bit starts as a pick up from the previous bar. It's an overdub
as far as I can hear, so you could carry on playing the rhythm above while 
someone else plays or mix it up and have all th efun yourself

E|----------------------------|--9--9--9--9--9--9--9--9----|
B|-----------------5--4--5----|--8--8--8--8--8--8--8--8----|
G|-----------------6--5--6----|--9--9--9--9--9--9--9--9----|
D|----------------------------|----------------------------|
A|----------------------------|----------------------------|
E|----------------------------|----------------------------|

                  
E|----------------------------|----------------------------|
B|-----8--8--8--8-------------|----------------------------|
G|-----9--9--9--9-----5--6----|----------------------------|
D|-----------------7----------|--2-----4-----5--------2L---|
A|----------------------------|--0-----0-----0-----3b-0L---|
E|----------------------------|----------------------------|


E|----------------------------|--9--9--9--9--9--9--9--9----|
B|-----------------5--4--5----|--8--8--8--8--8--8--8--8----|
G|-----------------6--5--6----|--9--9--9--9--9--9--9--9----|
D|--2--2--4-----2-------------|----------------------------|
A|--0--0--0-----0-------------|----------------------------|
E|----------------------------|----------------------------|

                                              
E|----------------------------|----------------------------|
B|-----8--8--8--8--8----------|-----------------5b-5b------|
G|-----9--9--9--9--9--5--6----|-----------------5b-5b------|
D|----------------------------|--7--7--7-------------------|
A|----------------------------|----------------------------|
E|----------------------------|----------------------------|

                                D
E|----------------------------|----------------------------|
B|--5b-5b-5b-5b-5b------------|----------------------------|
G|--5b-5b-5b-5b-5b------------|--------4-----5-----4-------|
D|-----------------7--4-------|--------0.----0-----0.------|
A|-----------------------3s---|--5--------------------3s---|
E|----------------------------|----------------------------|


E|----------------------------|----------------------------|
B|----------------------------|----------------------------|
G|--------4-----5--5--4--2L---|--2-----4-----5--------5L---|
D|--------0.----0--0--0--0L---|--0-----0.----0--------0L---|
A|--5-------------------------|----------------------------|
E|----------------------------|----------------------------|

                                A
E|----------------------------|----------------------------|
B|----------------------------|----------------------------|
G|--5--5--4--4--2--2----------|----------------------------|
D|--0--0--0--0--0--0----------|--2-----4-----2-----4--5L---|
A|--------------------3b------|--0-----0-----0-----0--0L---|
E|-----------------------3----|----------------------------|


E|-------------------------------------------------------|
B|-------------------------------------------------------|
G|-------------------------------------------------------|
D|--5-----5-----4-----------2-----2--------------2-------|
A|--0-----0-----0-----------0-----0-----3h-4-------------|
E|-------------------------------------------------------|


E|-------------------------------------------------------|
B|-------------------------------------------------------|
G|-------------------------------------------------------|
D|--2-----------4-----------2-----------4----------------|
A|--0-----------0-----------0-----------0-----3--4L------|
E|-------------------------------------------------------|

                                E
E|----------------------------|----------------------------|
B|----------------------------|----------------------------|
G|-----2--------2-------------|----------------------------|
D|-----2--------2--------0----|----------------------------|
A|--4-----3--4-----3--4--0----|--2-----4-----5-----4--2L---|
E|----------------------------|--0-----0-----0-----0--0L---|


E|----------------------------|----------------------------|
B|----------------------------|----------------------------|
G|----------------------------|----------------------------|
D|----------------------------|----------------------------|
A|--2--2--4--4--5--5--4--2----|--2--2--4-----5-----4--5L---|
E|--0--0--0--0--0--0--0--0----|--0--0--0.----0-----0.-0L---|

                                A
E|----------------------------|--9--9--9--9--9--9--9--9----|
B|-----------------4--5--4----|--8--8--8--8--8--8--8--8----|
G|-----------------5--6--5----|--9--9--9--9--9--9--9--9----|
D|----------------------------|----------------------------|
A|--5--5--4-------------------|----------------------------|
E|--0--0--0-------------------|----------------------------|


E|----------------------------|----------------------------|
B|-----8--8--8--8-------------|----------------------------|
G|-----9--9--9--9-----5--6----|-----------------------2L---|
D|-----------------7----------|--2-----4-----2--------2L---|
A|----------------------------|--0-----0-----0-----x-------|
E|----------------------------|----------------------------|


E|----------------------------||
B|----------------------------||
G|--2--2-----------2----------||
D|--2--2--4--------2----------||
A|--------0--3h-4-------------||
E|----------------------------||



x   **********************************

| s   bend slightly  
| x   Dead 
| L   Tied 
| h   Hammer-on
| b   Bend


************************************

            
            
Suggest correction
Creating personal tab
Creating personal tab
You can edit any tab online and save it as your Personal.

You can edit, replace or remove any tab part or add personal notes – all changes will be seen only by you.

Personal tabs can be accessed anytime from any device, even offline.
Learn more »
Give kudos to tab author, rate the tab!
1 2 3 4 5
comments
print report bad tab
guest
You may want to rate the tab now too:
select rating
Wanna post a correction for this tab? Suggest correction