Oops, an error
Loading. Please wait.

It Makes No Difference Live bass

4,487 views 27 this week
no commentswrite comment
1 2 3 4 5
1 last vote to show rating
add to favorites
×
Save as Personal and add changes to this tab that will be seen only by you. Learn more ›
×
You can save this tab as Personal to edit and correct it or add notes. All changes will be seen only by you. Learn more »
launch autoscroll
font size
0
reset
guitar tuner
edit
Autoscroll
slow
fast
+/-
esc
set tempo
stop
Author
It Makes No Difference
The Band
Bass Tab
Original Bassist: Rick Danko

128BPM, 4/4

Note: This is the live version from soundtrack to The Last Waltz. 

Intro

|-----------|
|-----------|
|-----------|
|-----3--5--|

|-----------|-----------|--------------|-------------|
|-----------|-----------|--------------|-------------|
|-----------|--------5--|-6----6-5-6-7-|-8-----------|
|-6----6----|-3---------|--------------|----1--3--5--|

|------------|-------------|----------|-------------|
|------------|-------5--7--|-8--------|-8-----------|
|---------5--|-6--8--------|----------|----------5--|
|-6----6-----|-------------|----------|----6--8-----|

Verse

|-----------|-------------|----------|------------|
|-----------|----------5--|----------|------------|
|-6----6----|---6--6-8----|-5--------|---8--5--3--|
|-----------|-------------|----------|------------|

|-----------|------------|-------------|--------------|
|--------5--|-3--3-------|-------------|--------------|
|-----------|---------5--|-3----3------|-3--1--3--5---|
|-3---------|------------|-----------5-|--------------|

|----------|-------------|------------|-------------|
|----------|----------5--|-------5-8--|-------------|
|-6--------|---6--6-8----|-5----------|--8-5--------|
|----------|-------------|------------|-------6--5--|

|------------|-----------|--------------|---------|
|---------5--|-3--3------|------------1-|-3-------|
|------------|-----------|-3--3--3--3---|---------|
|-3----3-----|-----------|--------------|----1----|

Chorus

|-----------|-----------|--------------|-------------|
|-----------|-----------|--------------|-------------|
|-----------|------5----|-6----6-5-6-7-|-8-----------|
|-6----6----|-3---------|--------------|----1--3--5--|

|------------|------------|------------|------------|
|------------|------------|----8----8--|------------|
|---------5--|-6----5-----|------------|------------|
|-6----6-----|---------8--|-6----------|---1--3--5--|

|-----------|-----------|--------------|-------------|
|-----------|-----------|--------------|-------------|
|-----------|------5----|-6----6-5-6-7-|-8-----------|
|-6----6----|-3---------|--------------|----1--3--5--|

|------------|------------|-------------|-------------|
|------------|------------|----8--------|-------------|
|---------5--|-6----5-----|-------------|-------------|
|-6----6-----|---------8--|-6-------6-6-|---1--1-x-5--|

Alternate Verse

|-----------|--------------|--------------|-------------|
|-----------|--------------|--------------|-------5-8---|
|-----------|-------5-6-8--|-8--8---5-8-5-|-8--8--------|
|-6----6----|-6--6---------|--------------|-------------|

|-----------|-------------|----------|--------------|
|-----------|-------------|----------|--------------|
|-6----6----|-6--6--5--4--|-3--------|-3p1h3--3-1---|
|-----------|-------------|----------|--------------|

|-----------|-----------|--------------|-------------|
|-----------|-----------|--------------|-------------|
|-----------|------5----|-6----x-5-6-7-|-8-----------|
|-6----6----|-3---------|--------------|----1--1--5--|

|------------|------------|----------|------------|
|------------|------------|----------|------------|
|---------5--|-6----5--3--|----------|------3-5---|
|-6----6-----|------------|-6--------|---6--------|

Verse

|----------|-------------|------------|-------------|
|----------|----------5--|-------5-8--|-------------|
|-6--------|---6--6-8----|-5----------|--8-5--------|
|----------|-------------|------------|-------6--5--|

|------------|------------|-------------|--------------|
|----5----5--|-3----3-----|-------------|--------------|
|------------|---------5--|-3--3--3---x-|-3--1--1-3h5--|
|-3----------|------------|-------------|--------------|

|----------|-----------|------------|-------------|
|----------|-----------|-------x-8--|-------------|
|-6--------|---6--6----|-5----------|--8-5--------|
|----------|-----------|------------|-------6--5--|

|-------------|------------|-------------|---------|
|----5--5--5--|-3----3-----|-----------1-|-3-------|
|-------------|---------5--|-3--3--3-----|---------|
|-3-----------|------------|-------------|----1----|

Chorus

|-----------|-----------|--------------|-------------|
|-----------|-----------|--------------|-------------|
|-----------|-----------|-6----6-5-6-7-|-8-----------|
|-6----6----|-3----3----|--------------|----1--1--1--|

|------------|-------------|-----------|--------------|
|------------|-------------|----8------|-8------------|
|---------5--|-6--6--5-----|-----------|--------------|
|-6----6-----|----------8--|-6---------|----1--1-3-5--|

|-----------|------------|--------------|-------------|
|-----------|------------|--------------|-------------|
|-----------|---------5--|-6----x-5-6-7-|-8-----------|
|-6----6----|-3----3-----|--------------|----1--1--3--|

|------------|-------------|-----------|--------------|
|------------|-------5--7--|-8----8----|-8------------|
|---------5--|-6--8--------|-----------|--------------|
|-6----6-----|-------------|-----------|----1--1-x-5--|

Alternate Verse

|--------------|--------------|----------|-------------|
|--------------|--------------|----------|-------5-8---|
|--------------|-------5-6-8--|-8--------|--5-8--------|
|-6----x6----x-|-6--6---------|----------|-------------|

|----------|--------------|----------|------------|
|----------|--------------|----------|------------|
|-6--------|-6--6--5p3h5--|-3--------|---3--3-1---|
|----------|--------------|----------|------------|

|-----------|------------|--------------|-------------|
|-----------|------------|--------------|-------------|
|-----------|---------5--|-6----6-5-6-7-|-8-----------|
|-6----6----|-3----3-----|--------------|----1--1--5--|

|------------|-------------|------------|-------------|
|------------|-------------|----8----8--|--5-8--7--5--|
|---------5--|-6--6--5-----|------------|-------------|
|-6----6-----|----------8--|-6----------|-------------|

Bridge

|------------|--------------|-----------|--------------|
|------------|--------------|-----------|--------------|
|-8--------x-|-8---5h8-7-6--|-5----5----|-5----5-3-5---|
|------------|--------------|-----------|--------------|

|------------|------------|-------------|---------------|
|------------|------------|-------------|---------------|
|-6----6---x-|-6----6--5--|-3--3--3---x-|-3--1--3h5-6h7-|
|------------|------------|-------------|---------------|

|------------|---------------|-----------|-------------|
|------------|---------------|-----------|-------------|
|-8----8--8--|-8-5-8--8-7-6--|-5----5----|-5----5-3-5--|
|------------|---------------|-----------|-------------|

|-----------|------------|------------|------------|
|-----------|------------|------------|------------|
|-6----6----|-6----6--5--|-3----3---x-|-3----3--5--|
|-----------|------------|------------|------------|

|-------------|------------|
|-3--3--3---1-|-3----------|
|-------------|------------|
|-------------|----1--1----|

Chorus

|-----------|------------|--------------|-------------|
|-----------|------------|--------------|-------------|
|-----------|---------5--|-6----6-5-6-7-|-8-----------|
|-6----6----|-3----3-----|--------------|----1--3--5--|

|------------|-------------|-----------|-------------|
|------------|-------------|-----------|-------------|
|---------5--|-6--6--5--3--|-----------|-------------|
|-6----6-----|-------------|-6-----6-6-|---1--1-3-5--|

|-----------|-----------|--------------|-------------|
|-----------|-----------|--------------|-------------|
|-----------|--------5--|-6----6-5-6-7-|-8-----------|
|-6----6----|-3---------|--------------|----1--3--5--|

|-------------|--------------|-----------|-------------|
|-------------|--------------|--------8--|-------------|
|----------5--|-6--6--6-5----|-----------|-------------|
|-6--6--6-----|-----------8--|-6---------|---1--1-3-5--|

Alternate Verse

|-----------|-------------|----------|-------------|
|-----------|-------------|----------|-------5-8---|
|-----------|------5-6-8--|-8--------|--5-8--------|
|-6----6----|-6-----------|----------|-------------|

|----------|--------------|----5------|-----------|
|----------|--------------|-----------|-----5--3--|
|-6--------|-6--6--5-3-5--|-3---------|-----------|
|----------|--------------|-----------|-----------|

|-----------|------------|--------------|-------------|
|-----------|------------|--------------|-------------|
|-----------|---------5--|-6----6-5-6-7-|-8-----------|
|-6----6----|-3----3-----|--------------|----1--1--5--|

|------------|-------------|----------|-------------|
|------------|-------5--7--|-8--------|-------------|
|---------5--|-6--8--------|----------|--------3-5--|
|-6----6-----|-------------|----------|---6--6------|

Guitar Solo

|------------|--------------|------------|-------------| 
|------------|-----------5--|-------5-8--|-------------|  
|-6---x6---x-|-6--6--6-8----|-5----------|--8-5--------|
|------------|--------------|------------|-------6--5--|

|-------------|--------------|-------------|--------------| 
|----5----5-4-|-3--3--3------|-------------|--------------|
|-------------|----------5-4-|-3--3--3---1-|-3-1---1-3-5--|
|-3-----------|--------------|-------------|--------------|

|------------|-------------|------------|-------------| 
|------------|-------------|-------5-8--|-------------|
|-6---x6---x-|-6--6---x-8--|-5----------|--8-5--------|
|------------|-------------|------------|-------6--5--|

|-------------|---------------|--------------|-----------|
|----5----5-4-|-3--3--3-------|------------1-|-3---------|
|-------------|---------5p3-5-|-3--3--3--3---|-----------|
|-3-----------|---------------|--------------|---1-------|  

Sax Solo

|-----------|------------|--------------|-------------|
|-----------|------------|--------------|-------------|
|-----------|---------5--|-6----6-5-6-7-|-8-----------|
|-6----6----|-3----3-----|--------------|----1--1--1--|

|------------|-------------|------------|-------------|
|------------|-------------|----8----8--|-------------|
|---------5--|-6--6--5-----|------------|-------------|
|-6----6-----|----------8--|-6----------|---1--1-3-5--|

|-----------|------------|--------------|--------------|
|-----------|------------|--------------|--------------|
|-----------|---------5--|-6----6-5-6-7-|-8------------|
|-6----6----|-3----3-----|--------------|----1--1-3-5--|

|-----------|-------------|----------|-------------|
|-----------|-------5--7--|-8--------|-------------|
|--------5--|-6--8--------|----------|-------------|
|-6---------|-------------|----------|---1--1-3-5--|

Back to guitar

|------------|--------------|--------------|--------------|
|------------|--------------|--------------|--------5-8---|
|------------|-------5-6-8--|-8-8----5-8-5-|-8-5-8--------|
|-6---x6---x-|-6--6---------|--------------|--------------|

|------------|--------------|----5~--3---3-|-~-----------|
|------------|--------------|----------5---|---5--3-0----|
|-6----6---x-|-6--6--6-5-4--|-3------------|----------3--|
|------------|--------------|--------------|-------------|

Back to sax

|-----------|------------|--------------|-------------|
|-----------|------------|--------------|-------------| 
|-----------|---------5--|-6----6-5-6-7-|-8-----------|
|-6----6----|-3----3-----|--------------|----1--1--1--|

|------------|-----------|-------------|------|
|------------|-----------|-------5--7--|------|
|---------5--|-6----6----|-6--8--------|------|
|-6----6-----|-----------|-------------|-6----|

|---------|-----*|
|---------|-----*|
|---------|-----*|
|---------|-----*|

            
            
Suggest correction
Creating personal tab
Creating personal tab
You can edit any tab online and save it as your Personal.

You can edit, replace or remove any tab part or add personal notes – all changes will be seen only by you.

Personal tabs can be accessed anytime from any device, even offline.
Learn more »
Give kudos to tab author, rate the tab!
1 2 3 4 5
comments
print report bad tab
guest
You may want to rate the tab now too:
select rating
Wanna post a correction for this tab? Suggest correction