Oops, an error
Loading. Please wait.

The Weight Chords

version 4
version 4
103,270 views 48 this week
1 commentread comment
1 2 3 4 5
x 21
add to favorites
launch autoscroll
font size
0
reset
transpose
0
reset
simplify chords
display chords
guitar tuner
Autoscroll
slow
fast
+/-
esc
set tempo
stop
Help us to improve Ultimate-Guitar.com Take our survey!
×
Author
This version is the Jack White, Edge, and Jimmy page version from "It Might Get Loud"

e|----3-----3---3----2---------3--------------------|
B|----3-----3---3----3--1-1----3--------------------|
G|----0-----0---0----2--0-0----0--------------------|  
D|----0-----0---2-------2-2----0--------------------|          
A|----2-----0---2-------3-3----2--------------------|     
E|----3-----2---x----2--x-x----3--------------------|(x2)   

[Intro]

G 
G/F#
Em7
D/F#
C (x2)
G

[Verse]
G
Bm
C
G

[Chorus]
G
D/F#
C


[Verse]

G            Bm                      C                 G
I pulled into Nazareth, I was feelin' about half past dead.
G                   Bm         C              G
I just need some place where I  can lay my head
G            Bm                      C                 G
Hey, mister, can you tell me where a man might find a bed
G               Bm                       C                 G
He just grinned and shook my hand, and "No", was all he said.

[Chorus]
G      D/F#     C
Take a load off Fannie, 
G      D/F#     C
Take a load for free
G      D/F#     C
Take a load off Fannie,
                                                                        
 And you can put the load right on me. 
e|----3-----3---3----2---------3--------------------|
B|----3-----3---3----3--1-1----3--------------------|
G|----0-----0---0----2--0-0----0--------------------|  
D|----0-----0---2-------2-2----0--------------------|          
A|----2-----0---2-------3-3----2--------------------|     
E|----3-----2---x----2--x-x----3--------------------|(x2)



************************************

| x  Dead note

************************************
Suggest correction
comments
print report bad tab
1 comment total.
0 reply
WH25 10 May 05, 2012 05:34 AM

Looks good to me. I'm no expert, but if I'm correct, these guys played it a tone down from The Band's version (playing in G instead of in A). Which means that, quick tip, if you want to play with the original, The Band recording (from Music from Big Pink), you can use the same chords, but play them with a capo on the 2nd fret.

guest
You may want to rate the tab now too:
select rating
Wanna post a correction for this tab? Suggest correction