Oops, an error
Loading. Please wait.

W S Walcott Medicine Show chords

version 2
version 2

Whole song

490 views 15 this week
no commentswrite comment
1 2 3 4 5
2 more votes to show rating
add to favorites
×
Save as Personal and add changes to this tab that will be seen only by you. Learn more ›
×
You can save this tab as Personal to edit and correct it or add notes. All changes will be seen only by you. Learn more »
launch autoscroll
font size
0
reset
transpose
0
reset
simplify chords
display chords
guitar tuner
edit
Autoscroll
slow
fast
+/-
esc
set tempo
stop
Author
Difficulty
Strumming
There is no strumming pattern for this song yet. and get +5 IQ
[Verse]

G                               F
When your arms are empty, got nowhere to go
G       D7      G
Come on out and catch the show
           G                             B7
There'll be saints and sinners you'll see losers and winners
 C                           Gdim7
All kinds of people you might want to know
          G                E7          
Once you get it, you can't forget it,
     Eb      D7      G
W.S. Walcott Medicine Show


[Chorus 1]
        C          D        E
You know he always holds it in a tent,
              G           C              D
And if you're looking for the real thing,
       C        D7       G
He can show you where it went.


[Verse]
          G                         F
There's a young faith healer he's a woman stealer
G       D7             G
He will cure by his command
         G                     B7
When the music's hot you might have to stand
   C                          Gdim7
To hear the Klondike Klu Klux steamboat band
          G                   E7
Don't you sweat it, you can't forget it 
     Eb      D7      G
W.S. Walcott Medicine Show


[Chorus 2]
    C             D       E
I'd rather die happy than not die at all
      G        C     D
And a man is a fool, 
    C        D7       G
who will not heed the call


[Verse]
          G                           F
Gonna see Miss Brer Foxhole she's got diamonds in her teeth
G        D7         G
  She is real gold down underneath
        G                          B7
She's a rock and roll singer and a true dead ringer
C                              Gdim7
  For something like you ain't never seen
         G                    E7
Once you get it, you can't forget it   
     Eb      D7      G
W.S. Walcott Medicine Show
     Eb      D7      G
W.S. Walcott Medicine Show
     Eb      D7      G
W.S. Walcott Medicine Show
     Eb      D7      G
W.S. Walcott Medicine Show


[Intro]
e---------------------3-|-------------------|
B-----------------------|-------------6--3--|
G------------------2b---|-------------5--3--|
D------0-3----3---------|------0-3----------|
A----3------------------|----3--------------|
E-3--------3-----3------|-3--------3--------|

e---------------------3-|-------------6-6-3--|
B-----------------------|-------------6-6-3--|
G------------------2b---|--------------------|
D------0-3----3---------|------0-3-----------|
A----3------------------|----3---------------|
E-3--------3-----3------|-3--------3---------|

e---------------------3-|----------------3-|
B-----------------------|-------------6----|
G------------------2b---|-------------5b---|
D------0-3----3---------|------0-3---------|
A----3------------------|----3-------------|
E-3--------3-----3------|-3--------3-------|

e---------------------3-|----------------------|
B-----------------------|-------------6--6-6-6-|
G------------------2b---|-------------5b-3h5p3-|
D------0-3----3---------|------0-3-------------|
A----3------------------|----3-----------------|
E-3--------3-----3------|-3--------3-----------|


Chords Used

W.S. Walcott Medicine Show (Robertson) 

Time signature: 4/4 
Key = C

[Verse] || G | F | G D7 | G || % | B7 | C | Gdim7 || G | E7 | Eb D7 | G ||

[Chorus] || C D | E | G C | D / C D7 | G ||

Gdim7: 345353 
Eb:    xx5343

            
            
Suggest correction
Creating personal tab
Creating personal tab
You can edit any tab online and save it as your Personal.

You can edit, replace or remove any tab part or add personal notes – all changes will be seen only by you.

Personal tabs can be accessed anytime from any device, even offline.
Learn more »
Give kudos to tab author, rate the tab!
1 2 3 4 5
comments
print report bad tab
guest
You may want to rate the tab now too:
select rating
Wanna post a correction for this tab? Suggest correction