Oops, an error
Loading. Please wait.

Higher bass

version 1
version 1

Whole song

Interactive

2,254 views 1 this week
no commentswrite comment
1 2 3 4 5
2 more votes to show rating
add to favorites
×
Save as Personal and add changes to this tab that will be seen only by you. Learn more ›
×
You can save this tab as Personal to edit and correct it or add notes. All changes will be seen only by you. Learn more »
launch autoscroll
font size
0
reset
guitar tuner
edit
Autoscroll
slow
fast
+/-
esc
set tempo
stop
Author
Difficulty
-------------------------------------------------------------------------------
			    Higher - The Band Apart
-------------------------------------------------------------------------------

Tabbed By : GrooveBear
e-mail: GrooveBear@gmx.net

Tuning: Standard


  7 Bars Pause


Part A

  |------------------------|
  |---P--------------------|
  |------------------------|
  |----------------/11-9S--|



Part B
 
         E   E  E  E  E  Q    E              E   E  E  E  E      Q.
  |----------------------------------|  |----------------------------------|
  |------P---------------P-----------|  |------------------------P---------|
  |--------------9------------4------|  |-----4--6--6----------------------|
  |-----------6-----9--7-------------|  |--------------4--4----------------|

         E   E  E  E  E  Q    E              E   E  E      H     E
  |----------------------------------|  |----------------------------------|
  |------P---------------P-----------|  |------------------P-----L---------|
  |--------------9------------4------|  |-----4--6--6----------------------|
  |-----------6-----9--7-------------|  |----------------------------------|



Part C

        E  E  E  E   S  S  E  Q             E.  E  S  E  E  S  S  S  S  S  S
  |----------------------------------|  |-------------------------------------|
  |-----9-----9--11--9p-8------------|  |----------p-----p--------4p-6h-4--P--|
  |--------9---------------8---------|  |---6--4------4-----4h-6--------------|
  |---------------------------6------|  |-------------------------------------|

        E  E  E  E   S  S  E  Q                E.  E  S E  E  E  E  E 
  |----------------------------------|  |-------------------------------|
  |-----9-----9--11--9p-8------------|  |-------------------------------|
  |--------9---------------8---------|  |-----/6---4----4--6--9--6--9---|
  |---------------------------6------|  |-------------------------------|

        E  E  E  E   S  S  E  Q             E.  E  S  E  E  S  S  S  S  S  S
  |----------------------------------|  |-------------------------------------|
  |-----9-----9--11--9p-8------------|  |----------p-----p--------4p-6h-4--P--|
  |--------9---------------8---------|  |---6--4------4-----4h-6--------------|
  |---------------------------6------|  |-------------------------------------|

        E  E  E  E   S  S  E  Q              E.   E  S  Q  Q.
  |----------------------------------|  |------------------6s-----|
  |-----9-----9--11--9p-8------------|  |----/6---4--P--4---------|
  |--------9---------------8---------|  |-------------------------|
  |---------------------------6------|  |-------------------------|


 Part C.2  

         E.  E  S E  E  E  E  E
  |-------------------------------|
  |-------------------------------|
  |-----/6---4----4--6--9--6--9---|
  |-------------------------------|




Part D 

     E  E  E  E  E  E  E  E
  |---------------------------|  
  |---------------------------| 
  |--6--6--6--6---------------|  
  |--------------4--4--4--4---|  



Part E

    E  E  E  E  E  E  E  E          E  E  E  E  E  E  E  E
  |---------------------------|  |-----------------------------|
  |---------------------------|  |-----------------------4-----|
  |---------------------------|  |--4--4--4--6--6--4--6--------|
  |--6--6--6--7--7--7--7--7---|  |-----------------------------|

     E  E  E  E  E  E  E  E         E  E  E  E  E  E  E  E
  |---------------------------|  |-----------------------------|
  |---------------------------|  |-----------------------------|
  |---------------------------|  |--4--4--4--6--6--4-----------|
  |--6--6--6--7--7--7--7--7---|  |--------------------6--4-----|



Part F
       W                       E   E   E   Q    E     E
  |---------------------|  |--/11--11--11-----------------------|
  |---------------------|  |---------------12s-----p------------|
  |---/7-~--------------|  |------------------------------------|
  |---------------------|  |--------------------9-----9\--------|

     Q  Q  Q  Q          Q  Q  Q  E  E       H  E  E   E  E
  |---------------|  |-----------------|  |--------------6--|
  |--P-----P------|  |--P-----P--------|  |--P--------4-----|
  |---------------|  |-----------------|  |-----4--6--------|
  |-----X-----X---|  |-----X-----X--X--|  |-----------------|

     E   E  E   E  E  E   E   E        E   E  E   E  E  E   E   E
  |--11-----11-----11-----11-----|  |--11-----11-----11-----18------|
  |------P------P------P------P--|  |------P------P------P------P---|
  |------------------------------|  |-------------------------------|
  |------------------------------|  |-------------------------------|


     E   E  E   E  E  E   E   E        E   S   S   E   S S  S   S   E S  S   E
  |--11-----11-----11-----11-----|  |--11---------------------------------------|
  |------P------P------P------P--|  |------11h-13p-11--x-x----------------------|
  |------------------------------|  |-----------------------11h-13p-11----------|
  |------------------------------|  |---------------------------------9h-11p-9--|



Part G

         E   E  E  E  E  Q    E              E   E  E  E  E      Q    E
  |----------------------------------|  |----------------------------------|
  |------P---------------P-----------|  |------------------------P---------|
  |--------------9------------4------|  |-----4--6--6-----------------4----|
  |-----------6-----9--7-------------|  |--------------4--4----------------|

         E   E  E  E  E  Q    E              E   E  E      Q     E  E  E
  |----------------------------------|  |----------------------------------|
  |------P---------------P-----------|  |------------------P-----4--P--4---|
  |--------------9------------4------|  |-----4--6--6----------------------|
  |-----------6-----9--7-------------|  |----------------------------------|


Part H

       W                       E   E   E   E   E   E   Q
  |---------------------|  |--/11--11--11-------------------|
  |---------------------|  |---------------12--12--12--12\--|
  |---/7-~--------------|  |--------------------------------|
  |---------------------|  |--------------------------------|

  |--------------------------|  |---------------------------|
  |--------------------------|  |---------------------------|
  |--------------------------|  |--/7--7--7--7--7--7--7--7--|
  |--0--0--0--0--0--0--0--0--|  |---------------------------|





                      Song Structur


7 Bars Pause
1 X Part A
5 X Part B
1 X Part C
2 X Part B Second time Playing don't play the last bar play Part D
4 X Pard E
1 X Part F
2 X Part G
1 X Part C Replace the last Bar of Part C with Part C.2 after playing Part G
1 X Part H
Part E for the Rest of the Song.

 
 Sorry it looks kinda confusing but it's not XD
 Good Luck and Smooth Playing



http://www.asiangothic.org/band/



Duration Legend
_______________
W - whole
H - half
Q - quarter
E - 8th
S - 16th

Tablature Legend
________________
L - tied note
x - dead note
h - hammer on
p - pull off
S - shift slide
s - legato slide
/ - slide into from below or out of upwards
\ - slide into from above or out of downwards
~ - vibrato
P - Pause

            
            
Suggest correction
Creating personal tab
Creating personal tab
You can edit any tab online and save it as your Personal.

You can edit, replace or remove any tab part or add personal notes – all changes will be seen only by you.

Personal tabs can be accessed anytime from any device, even offline.
Learn more »
Give kudos to tab author, rate the tab!
1 2 3 4 5
comments
print report bad tab
guest
You may want to rate the tab now too:
select rating
Wanna post a correction for this tab? Suggest correction