Oops, an error
Loading. Please wait.

Better Dig Two bass

1,639 views 1 this week
1 commentread comment
1 2 3 4 5
2 more votes to show rating
add to favorites
×
Save as Personal and add changes to this tab that will be seen only by you. Learn more ›
×
You can save this tab as Personal to edit and correct it or add notes. All changes will be seen only by you. Learn more »
launch autoscroll
font size
0
reset
guitar tuner
edit
Autoscroll
slow
fast
+/-
esc
set tempo
stop
----------------------------------------------------------------------------
                             Better Dig Two - The Band Perry
-----------------------------------------------------------------------------

Tabbed by: Country Bass
E-mail: aaron.white8@education.nsw.gov.au

Great song by Band Perry, first single off their Pioneer album
I've tabbed it as close to what Reid plays it


Tuning: Standard

Intro

no bass during intro

Verse

starts at 0:34

G|---------------------------------------|
D|---------------------------------------|
A|---------------------4-4---------------|
E|--7-7-------7-7---------------7-7------|

Pre-Chorus

G|-----------------------------------------|  
D|-----------------------------------------|  
A|------7---5--------7---5--------7---5-5--|
E|--5------------5------------5------------|

Chorus

G|-----------------------------------------------|
D|-----------------------------------------------|
A|--5--5--5--5-5-5---------3--5-------------4-4--| 
E|------------------3--3---------4-4--4-4-4------|

The second chorus plays the final 4th fret A a few more times

Bridge

G|----------------------------|    |---|
D|----------------------------|    |---|
A|----------------------------| x7 |---|
E|--4--4--4--4-4-6--6--6--6-6-|    |-4-|

from "If the ties that bind ever do come lose.." there is no bass 
until after Kimberly sings "and let the stone say"

Chorus 3

G|----------------------------------------------------------|
D|----------------------------------------------------------|
A|--5--5--5--5-5-5---------3--5-------------4-4--4--x-4-x-4-| 
E|------------------3--3---------4-4--4-4-4-----------------|

G|------------------------------------------------------|
D|------------------------------------------------------|
A|--5--5--5--5-5-5---------3--5-------------4-4--4--x-4-| 
E|------------------3--3---------4-4--4-4-4-------------|

No bass during outro


Playing Order

Intro (no bass)
Verse
Pre-Chorus
Chorus
Verse
Pre-Chorus
Chorus
Bridge
Chorus 3
Outro (no bass)


| /  slide up
| \  slide down
| h  hammer-on
| p  pull-off
| ~  vibrato
| +  harmonic
| x  Mute note
=============================================================================

            
            
Suggest correction
Creating personal tab
Creating personal tab
You can edit any tab online and save it as your Personal.

You can edit, replace or remove any tab part or add personal notes – all changes will be seen only by you.

Personal tabs can be accessed anytime from any device, even offline.
Learn more »
Give kudos to tab author, rate the tab!
1 2 3 4 5
comments
print report bad tab
1 comment total.
0 reply
DEATHCRUE 46 Jul 27, 2013 09:18 AM

This song on bass does not start off in B it starts off on A should be the 5th fret not the 7th .. or You could play the Open A but this is all wrong ..

guest
You may want to rate the tab now too:
select rating
Wanna post a correction for this tab? Suggest correction