Oops, an error
Loading. Please wait.

Done bass

3,071 views 6 this week
2 commentsread comments
1 2 3 4 5
2 more votes to show rating
add to favorites
×
Save as Personal and add changes to this tab that will be seen only by you. Learn more ›
×
You can save this tab as Personal to edit and correct it or add notes. All changes will be seen only by you. Learn more »
launch autoscroll
font size
0
reset
guitar tuner
edit
Autoscroll
slow
fast
+/-
esc
set tempo
stop
-----------------------------------------------------------------------------
                             Done - The Band Perry
-----------------------------------------------------------------------------

Tabbed by: Country Bass
E-mail: aaron.whtie8@education.nsw.gov.au


The second single off Band Perry's second album 'Pioneer'
Great song, fun to play
I've tabbed it how it is played on the album


Tuning: Standard

Intro

G|----------------------------------------------------------------|
D|----------------------------------------------------------------|
A|---------------------------------3--3--3--3-3-3-----------------|
E|--3--3--3--3-3-3--3--3--3--3-3-3----------------3--3--3--3-3-3--|

Verse

G|--------------------------------------------------------------------|
D|--------------------------------------------------------------------|
A|---------------------------------3--3--3--3-3-3---------------------|
E|--3--3--3--3-3-3--3--3--3--3-3-3----------------3--3--3--3-3-3--1---|

G|-------------------------------------------------------------------------|
D|-------------------------------------------------------------------------|
A|---------------------------------3--3--3--3-3-3----------------------3---|
E|--3--3--3--3-3-3--3--3--3--3-3-3----------------3--3--3--3-3-3--1--------|

Chorus

G|--------------------------------------------|    |----------------|
D|--------------------------------------------|    |----------------|
A|---------------------------------------3-3--| x2 |----------------|
E|--3--3--3--3-3-3--3--3--3--3-3-3--1-1-------|    |-3--3--3--3-3-3-|

G|------------------------------------------------|----------------|
D|------------------------------------------------|----------------|
A|----------3-3-3-3---------3-3-3-3-----3-3-----3-|----------------| x2
E|--1-1-1-1---------1-1-1-1---------1-1-----3-3---|-3--3--3--3-3-3-|

Verse 2

G|------------------------------------------------------------------------|
D|------------------------------------------------------------------------|
A|----------------------------3--3--3--3-3-3--------------------3--3-(x7)-|
E|-------------3--3--3--3-3-3----------------3--3--3--3-3-3-1-------------|

Chorus 2

G|--------------------------------------------|    |----------------|
D|--------------------------------------------|    |----------------|
A|---------------------------------------3-3--| x2 |----------------|
E|--3--3--3--3-3-3--3--3--3--3-3-3--1-1-------|    |-3--3--3--3-3-3-|

G|------------------------------------------------|
D|------------------------------------------------|
A|----------3-3-3-3---------3-3-3-3-----3-3-----3-| 
E|--1-1-1-1---------1-1-1-1---------1-1-----3-3---|

Bridge

G|----------------------------------------------------------|
D|----------------------------------------------------------|
A|------------------3-3-3-3-3-3-3-3-----------------5-(x16)-|
E|--1-1-1-1-1-1-1-1-----------------1-1-1-1-1-1-1-1---------|

Instrumental Break

G|--------------------------------------------|    
D|--------------------------------------------|    
A|---------------------------------------3-3--| x2 
E|--3--3--3--3-3-3--3--3--3--3-3-3--1-1-------|    

G|---------------------------------------------|
D|---------------------------------------------|
A|------------------3-3-3-3-3-3-3-3-5----------|
E|--1-1-1-1-1-1-1-1----------------------------|


Chorus 3

Rest while Kimberly sings "mama told me that I should play nice,
she didn't know you when she gave me that advice"

G|--------------------------------------------|    |----------------|
D|--------------------------------------------|    |----------------|
A|---------------------------------------3-3--| x2 |----------------|
E|--3--3--3--3-3-3--3--3--3--3-3-3--1-1-------|    |-3--3--3--3-3-3-|

G|------------------------------------------------|
D|------------------------------------------------|
A|----------3-3-3-3---------3-3-3-3-----3-3-----3-| 
E|--1-1-1-1---------1-1-1-1---------1-1-----3-3---|

G|---------------------------------------------|
D|---------------------------------------------|
A|---------------------3-3-----3---------------|
E|--3--3--3--3-3-3-1-1-----3-3---3-------------|

Outro

G|-----------------------------------------------------------------|
D|-----------------------------------------------------------------|
A|---------------------------------3--3--3--3-3-3------------------|
E|--3--3--3--3-3-3--3--3--3--3-3-3----------------3--3--3--3333333-|

Playing Order

Intro
Verse
Chorus
Verse 2
Chorus 2
Bridge
Instrumental Break
Chorus 3
Intro
Outro

Have Fun


| /  slide up
| \  slide down
| h  hammer-on
| p  pull-off
| ~  vibrato
| +  harmonic
| x  Mute note
=============================================================================

            
            
Suggest correction
Creating personal tab
Creating personal tab
You can edit any tab online and save it as your Personal.

You can edit, replace or remove any tab part or add personal notes – all changes will be seen only by you.

Personal tabs can be accessed anytime from any device, even offline.
Learn more »
Give kudos to tab author, rate the tab!
1 2 3 4 5
comments
print report bad tab
2 comments total.
0 reply
bpbassman 10 Sep 27, 2014 09:29 PM

This song is actually played out of B flat. Listen to the record.

0 reply
thebergens 10 May 31, 2016 03:49 PM

The tab is written in the wrong key. It's a half step lower than the song. So yeah... you should probably fix that.

guest
You may want to rate the tab now too:
select rating
Wanna post a correction for this tab? Suggest correction