Oops, an error
Loading. Please wait.

Angels Dont Fall In Love bass

25 views 6 this week
no commentswrite comment
1 2 3 4 5
2 more votes to show rating
add to favorites
×
Save as Personal and add changes to this tab that will be seen only by you. Learn more ›
×
You can save this tab as Personal to edit and correct it or add notes. All changes will be seen only by you. Learn more »
launch autoscroll
font size
0
reset
guitar tuner
edit
Autoscroll
slow
fast
+/-
esc
set tempo
stop
Standard tune; 4/4
Noe: This is an integrated bass tabs with lyrics; Play/sing tabs/lyrics bound within the measure.
https://www.youtube.com/watch?v=PamU6VYBdNE

[Intro]
G|--------------------|--------------------|--------------------|--------------------|
D|---7.--7.-----7~----|--5---4------2~-----|---7.--7.-----7~----|--5---4------2~-----|
A|---0----------------|--------------------|---0----------------|--------------------|
E|--------------------|--------------------|--------------------|--------------------| (2x)
                
[Verse 1]
G|--------------------|--------------------|--------------------|--------------------|
D|---7.--7.-----7~----|----7.--7.-----7~---|---4.--4.-----4~----|---3.--3.-----3~----|
A|--------------------|--------------------|--------------------|--------------------|
E|--------------------|--------------------|--------------------|--------------------|
                I saw  you  to   -  day                  She's     you're      such  
                                                         lovely                a heavenly 

G|--------------------|--------------------|--------------------|--------------------|
D|--/7.--7.-----7~----|----7.--7.-----7~---|---4.--4.-----4~----|---3.--3.-----3~----|
A|--------------------|--------------------|--------------------|--------------------|
E|--------------------|--------------------|--------------------|--------------------|
    pair You   hope    and you       pray      Some      day       take you  all the way
                                                          she'll

G|--------------------|--------------------|
D|--7-7--7---7-6-6-7.-|--7-7--7---7-6-6-7.-|
A|--0~-----0~---------|--0~-----0~---------|
E|--------------------|--------------------|
   there.

[Chorus]
G|--------------------|--------------------|--------------------|--------------------|
D|--------------------|--------------------|--------------------|--------------------|
A|--/7.--7.---7~--7-7-|--/9.--9.---9~--9-9-|/11.-11.--11~--11-11|/12.-12.--12~--12-12|
E|--------------------|--------------------|--------------------|--------------------|
    You should know      darling                 when a push      shove
            better                                     comes to 

G|--------------------|--------------------|
D|--------------------|--------------------|
A|-10.-10.--10~--9-8--|---7~---------------|
E|--------------------|--------------------|
   Angels don't fall in   love.

[Verse 2]
G|--------------------|--------------------|--------------------|--------------------|
D|---7.--7.-----7~----|----7.--7.-----7~---|---4.--4.-----4~----|---3.--3.-----3~----|
A|--------------------|--------------------|--------------------|--------------------|
E|--------------------|--------------------|--------------------|--------------------|
                You stand at the     gate                Hoping     gain ad - mission 
                                                            to

G|--------------------|--------------------|--------------------|--------------------|
D|--/7.--7.-----7~----|----7.--7.-----7~---|---4.--4.-----4~----|---3.--3.-----3~----|
A|--------------------|--------------------|--------------------|--------------------|
E|--------------------|--------------------|--------------------|--------------------|
               How long    willing  to wait,            She won't   give permission to-
               are you    

G|--------------------|--------------------|
D|--7-7--7---7-6-6-7.-|--7-7--7---7-6-6-7.-|
A|--0~-----0~---------|--0~-----0~---------|
E|--------------------|--------------------|
   night.

[Chorus]
G|--------------------|--------------------|--------------------|--------------------|
D|--------------------|--------------------|--------------------|--------------------|
A|--/7.--7.---7~--7-7-|--/9.--9.---9~--9-9-|/11.-11.--11~--11-11|/12.-12.--12~--12-12|
E|--------------------|--------------------|--------------------|--------------------|
    You should know      darling                 when a push      shove
            better                                     comes to 

G|--------------------|--------------------|
D|--------------------|--------------------|
A|-10.-10.--10~--9-8--|---7~---------------|
E|--------------------|--------------------|
   Angels don't fall in   love.

[Interlude]
G|--------------------|--------------------|--------------------|--------------------|
D|---7.--7.-----7~----|--5---4------2~-----|---7.--7.-----7~----|--5---4------2~-----|
A|---0----------------|--------------------|---0----------------|--------------------|
E|--------------------|--------------------|--------------------|--------------------| 

G|--------------------|--------------------|--------------------|--------------------|
D|---7.--7.-----7~----|--5---4------2~-----|--------------------|--------------------|
A|---0----------------|--------------------|--------R-----------|---------R----------|
E|--------------------|--------------------|--------------------|--------------------|

[Guitar Solo]
G|--------------------|--------------------|--------------------|--------------------|
D|--------------------|--------------------|--------------------|--------------------|
A|--/7.--7.---7~----7-|--/9.--9.---9~----9-|/11.-11.--11~-----11|/12.-12.--12~-----12|
E|--------------------|--------------------|--------------------|--------------------|

G|--------------------|--------------------|
D|--------------------|--------------------|
A|/10--10-10--10-9-8--|---7~---------------|
E|--------------------|--------------------|

[Bass Solo]
G|--------------------|--------------------|--------------------|--------------------|
D|----/7--7.---7~-----|-/5--5.---5~----5-5-|-----7.-7----7~-----|---5.-5-5-----5/9~--|
A|--------------------|--------------------|--------------------|--------------------|
E|--------------------|--------------------|--------------------|--------------------|

[Verse 3]
G|--------------------|--------------------|--------------------|--------------------|
D|--------------------|--------------------|---4.-4~------------|--3.-3~-------------|
A|----0.-0~-----------|--------------------|--------------------|--------------------|
E|--------------------|----3.-3~-----------|--------------------|--------------------|
           You got your         Got your            You think            and on some mission.
           higher aims,         ambition, yeah      you're spiritual

G|--------------------|--------------------|--------------------|--------------------|
D|--------------------|--------------------|---4.-4~------------|--3.-3~-------------|
A|----0.-0~-----------|--------------------|--------------------|--------------------|
E|--------------------|----3.-3~-----------|--------------------|--------------------|
          Well I can             look in your       Think of love       compromise.
          see it when I           eyes when I       you think of

G|--------------------|--------------------|--------------------|--------------------|
D|--------------------|--------------------|---4.-4~------------|--3.-3~-------------|
A|----0.-0~-----------|--------------------|--------------------|--------------------|
E|--------------------|----3.-3~-----------|--------------------|--------------------|
          It's no big      no   loss of       Trouble is there's        there to take your
          disgrace there's     grace          always someone                   place.

G|--------------------|--------------------|--------------------|--------------------|
D|--------------------|--------------------|---4.-4~------------|--3.-3~-------------|
A|----0.-0~-----------|--------------------|--------------------|--------------------|
E|--------------------|----3.-3~-----------|--------------------|--------------------|
          The trouble is   lieve it's true    sun goes down       left for you.
           you don't be-     when the         there's something

[Verse 4]
G|--------------------|--------------------|--------------------|--------------------|
D|--------------------|--------------------|---4.-4~------------|--3.-3~-------------|
A|----0.-0~-----------|--------------------|--------------------|--------------------|
E|--------------------|----3.-3~-----------|--------------------|--------------------|
          The trouble      missing so much    knocking on all      some angel's touch.
          is I see you     while you're       the wrong doors for

G|--------------------|--------------------|--------------------|--------------------|
D|--------------------|--------------------|---4.-4~------------|--3.-3~-------------|
A|----0.-0~-----------|--------------------|--------------------|--------------------|
E|--------------------|----3.-3~-----------|--------------------|--------------------|
      You think she's      you're dreaming    touble is those      fall in love.
        everything          of,  The          angels never

G|--------------------|--------------------|--------------------|--------------------|
D|--------------------|--------------------|--------------------|--------------------|
A|----0.-0~-----------|--------------------|--------------------|--------------------|
E|--------------------|----3.-3~-----------|-----2.-2~----------|----1.-1~-----1/----|

[Outro]
G|--------------------|--------------------|--------------------|--------------------|
D|--------7~----------|---------7~---------|---------7~---------|----------7~--------|
A|--------0-----------|---------0----------|---------0----------|----------0---------|
E|--------------------|--------------------|--------------------|--------------------|
  
  (palm muted-repeat last 4 measures to fade)
G|--------------------|--------------------|--------------------|--------------------|
D|--7-7--7---7-6-6-7.-|--7-7--7---7-6-6-7.-|--7-7--7---7-6-6-7.-|--7-7--7---7-6-6-7.-|
A|--------------------|--------------------|--------------------|--------------------|
E|--------------------|--------------------|--------------------|--------------------|


********************************

| .  - stacatto
| ~  - vibrato
| /  - slide up
| R  - whole rest

********************************
Suggest correction
Creating personal tab
Creating personal tab
You can edit any tab online and save it as your Personal.

You can edit, replace or remove any tab part or add personal notes – all changes will be seen only by you.

Personal tabs can be accessed anytime from any device, even offline.
Learn more »
Give kudos to tab author, rate the tab!
1 2 3 4 5
comments
print report bad tab
guest
You may want to rate the tab now too:
select rating
Wanna post a correction for this tab? Suggest correction