Oops, an error
Loading. Please wait.

Between The Two bass

52 views 1 this week
no commentswrite comment
1 2 3 4 5
2 more votes to show rating
add to favorites
×
Save as Personal and add changes to this tab that will be seen only by you. Learn more ›
×
You can save this tab as Personal to edit and correct it or add notes. All changes will be seen only by you. Learn more »
launch autoscroll
font size
0
reset
guitar tuner
edit
Autoscroll
slow
fast
+/-
esc
set tempo
stop
Author
Difficulty
"BETWEEN THE TWO" (studio version)
The Bangles
(Michael Steele on bass and lead vocals)
Tabs by: LazyDogPeachy

For more information on Michael Steele, visit: micki-steele.net

Standard Tune; 4/4 through out EXCEPT for 4 "fillers" that goes 2/4; These measures
               will be marked accordingly.

Note: This tab contains lyrics.  Sing/Play the appropriate lyrics/Notes that are 
      bound within a particular measure.


[INTRO]

G|---------9----|-------9-|----------9-|-9h11-11-9h11-11-11-\0---|
D|--9--11-----9-|9-9h11---|9-9-11-11---|-------------------------|
A|--------------|---------|------------|-------------------------|
E|--------------|---------|------------|-------------------------|


G|----------------|--------------|----------------|--------------|   
D|----------------|--------------|----------------|--------------|   
A|----------------|------2--2-0--|----------------|------2--2-0--|   
E|-2-2---2-4-4--4-|-5-5--------4-|-2-2---2-4-4--4-|-5-5--------4-| 

G|----------------|--------------|----------------|--------------|
D|----------------|--------------|----------------|--------------|
A|----------------|------2--2-0--|----------------|------2--2-0--|
E|-2-2---2-4-4--4-|-5-5--------4-|-2-2---2-4-4--4-|-5-5----------|
                                                            Oh my
  
[VERSE 1]

G|-------------|--------------------|---------------|----------------------|
D|-------------|--------------------|---------------|----------------------|
A|-4-4---4-4-4-|-4-4-4---4-4-4---4--|---------------|----------------------|
E|-------------|--------------------|-4-4----4-4-4--|--4-4-4----4----6--6/-|
   love you      say this is the      end    I         tell you it's   the 
                                                                            2/4
G|-------------|--------------------|--------------|----------------|-----------------|
D|-------------|--------------------|--------------|----------------|-2/6-6-4^6-6-6\0-|
A|-------------|--------------------|--------------|----------------|-----------------|
E|-7-7---7-7-7-|--7-7-7--7-7-7---7--|---4------4---|-4-4-4----4-4-4-|-----------------|
   hardest        thing          I      e  -   ver   had to do my                  But I'll
                                                     friend...

G|----------------|--------------|----------------|----------------|   
D|----------------|--------------|----------------|----------------|   
A|----------------|------2--2-0--|----------------|------2---2-0---|   
E|-2-2---2-4-4--4-|-5-5--------4-|-2-2---2-4-4--4-|-5-5---------4--|
   go                   I'll do    what you say'         But when I

G|----------------|--------------|----------------|----------------|
D|----------------|--------------|----------------|----------------|
A|----------------|------2--2-0--|----------------|------2--2-2-2--|
E|-2-2---2-4-4--4-|-5-5--------4-|-2-2---2-4-4--4-|-5-5------------|
   I walk,               I will    walk  away       from    you.    


[Verse 2]

G|-------------|--------------------|---------------|-------------------------|
D|-------------|--------------------|---------------|-------------------------|
A|-4-4---4-4-4-|-4-4-4---4-4-4---4--|---------------|-------------------------|
E|-------------|--------------------|-4-4----4-4-4--|-4-4-4----4------6--6/---|
                 And the dark place   from   the      hurt you share   bet -
                 you come            
                                                                          2/4
G|--------------|-------------------|---------------|--------------|----------------|
D|--------------|-------------------|---------------|--------------|2/6-6-4^6-6-6\0-|
A|--------------|-------------------|---------------|--------------|----------------|
E|-7-7---7-7-7--|-7-7-7--7-7-7---7--|-4-----4-4-4-4-|-4--4-4-4-4---|----------------|
   the two        run now             hide  what you  know to                   But you       
                                                      be the truth.

G|----------------|--------------|----------------|----------------|   
D|----------------|--------------|----------------|----------------|   
A|----------------|------2--2-0--|----------------|------2---2-0---|   
E|-2-2---2-4-4--4-|-5-5--------4-|-2-2---2-4-4--4-|-5-5---------4--|
   know                 I'll do    what you say'         But when I

G|----------------|--------------|----------------|----------------|
D|----------------|--------------|----------------|----------------|
A|----------------|------2--2-0--|----------------|------2--2-2-2--|
E|-2-2---2-4-4--4-|-5-5--------4-|-2-2---2-4-4--4-|-5-5------------|
   I walk,               I will    walk  away       from    you.    



[BRIDGE]

G|---------------------|--------------|---------|---------------|
D|---------------------|--------------|---------|---------------|
A|---------------------|---4-6--7-7---|-7-7-7---|---7-7---7---4-|
E|-5-5---5-5-5--0-5-5--|-5------------|---------|-7---------7---|
                        Look at  your   self,     it does no good to

G|--------------|---------------|--------------|----------------|
D|--------------|---------------|--------------|----------------|
A|-5-5---5-5-5--|---5-5---5-5---|--------------|-----------4--4-|
E|--------------|-5-----------5-|-7-7---7-7-7--|-7-7-7---6---7--|
   cry           it's not fore    e  -           ver,         But

G|--------------|---------------|--------------|----------------|
D|--------------|---------------|--------------|----------------|
A|--------------|-----------4-6-|-7-7---7-7-7--|---7-7---7---4--|
E|-5-5---5-5-5--|-0-5-5---5-----|--------------|-7---------7----|
   hey,     you   think that      strong,   You  think I got it all
                  I'm so
                                                                        2/4
G|--------------|---------------|--------------|----------------|-----------------|
D|--------------|---------------|--------------|----------------|-2/6-6-4h6-6-6\0-|
A|-5-5---5-5-5--|---5-5---5-5---|--------------|----------------|-----------------|
E|--------------|-5-----------5-|-7-7---7-7-7--|-7-7-7-7-7-7----|-----------------|
                  Maybe you're    wrong...


[SOLO]

G|---------|-----------|--------------------|--------------------|
D|---------|-----------|------2h4~----------|-----------------4/-|
A|---------|-----------|--------------------|--------------------|
E|---------|-----------|--------------2~----|--2--2--0--2--------|

G|---------9----|-------9-|----------9-|-9h11-11-9h11-11-11-\0---|
D|-/9--11-----9-|9-9h11---|9-9-11-11---|-------------------------|
A|--------------|---------|------------|-------------------------|
E|--------------|---------|------------|-------------------------|

G|----------------|---------------|----------------|---------------|
D|----------------|---------------|----------------|---------------|
A|----------------|-0-0--2-2-0----|----------------|-0-0--2-2-0----|
E|-2-2---2-4-4--4-|-------------4-|-2-2---2-4-4--4-|-------------4-|2x
                                                              
G|----------------|---------------|--------------|-----------------|
D|----------------|---------------|--4---4-2--2--|-----------------|
A|----------------|-0-0--2--2-4-4-|--------------|-0-2-4-2--2-0----|
E|-2-2---2-4-4--4-|---------------|--------------|--------------4--|2x
   hey, hey...


[Verse 3]

G|----------------|---------------|-------------|-----------------|
D|----------------|---------------|-4---4-2--2--|-----------------|
A|----------------|-0-0--2--2-4-4-|-------------|-0-2-4-2--2-0----|
E|-2-2---2-4-4--4-|---------------|-------------|--------------4--|
So go,                   I'll let   walk  away,                but when I
                         you
G|----------------|---------------|-------------|-----------------|
D|----------------|---------------|-4---4-2--2--|-----------------|
A|----------------|-0-0--2--2-4-4-|-------------|--0--2--4--2-----|
E|-2-2---2-4-4--4-|---------------|-------------|-----------------| 
   walk,                I will      walk   away             from you.


[Coda] 
 
     2/4
G|-------------|----------------|---------------|----------------|---------------|
D|-------------|----------------|---------------|----------------|---------------|
A|-------------|----------------|-0-0--2-2-0----|----------------|-0-0---2-2-2-2-|
E|----0--1-----|-2-2---2-4-4--4-|-------------4-|-2-2---2-4-4--4-|---------------|
         I  let  you  walk away....    And I pre -tend                    I don't feel

G|---------------|---------------|-----------------|---------------||
D|---4------2----|---------------|-----------------|---------------||
A|---------------|--0-------2~---|-----------------|---------------||
E|---------------|---------------|-----------------|---------------||
     some - thing   break - king.


*********************************
| h   = hammer on
| /   = slide up
| \   = slide down 
| ~   = vibrato

********************************* 

            
            
Suggest correction
Creating personal tab
Creating personal tab
You can edit any tab online and save it as your Personal.

You can edit, replace or remove any tab part or add personal notes – all changes will be seen only by you.

Personal tabs can be accessed anytime from any device, even offline.
Learn more »
Give kudos to tab author, rate the tab!
1 2 3 4 5
comments
print report bad tab
guest
You may want to rate the tab now too:
select rating
Wanna post a correction for this tab? Suggest correction