Oops, an error
Loading. Please wait.

Complicated Girl bass

10 views 3 this week
no commentswrite comment
1 2 3 4 5
2 more votes to show rating
add to favorites
×
Save as Personal and add changes to this tab that will be seen only by you. Learn more ›
×
You can save this tab as Personal to edit and correct it or add notes. All changes will be seen only by you. Learn more »
launch autoscroll
font size
0
reset
guitar tuner
edit
Autoscroll
slow
fast
+/-
esc
set tempo
stop
Complicated Girl
The Bangles
Tab by: LazyDogPeachy

https://www.youtube.com/watch?v=x05rapdaj94
Standard tune; 4/4


[Intro]
G|-----------4--4-4-4--|---------------------|-----------4--4-4-4--|---------------------|
D|--7--7-7-7-----------|--0--0-0-0-----------|--7--7-7-7-----------|--0--0-0-0-----------|
A|---------------------|-----------7--7-7-7--|---------------------|-----------7--7-7-7--|
E|---------------------|---------------------|---------------------|---------------------|2x

[Verse 1]
G|---------------------|---------------------|---------------------|---------------------|
D|---7----7--7------7--|---------------------|---7----7--7------7--|---------------------|
A|---------------------|---5----5--5------5--|---------------------|---5----5--5------5--|
E|---------------------|---------------------|---------------------|---------------------|
          Valerie is       beautiful                 But she seem a    little bit   con-
G|---------------------|---------------------|---4----4--4------4--|---4----4--4---------|
D|---7----7--7------7--|---------------------|---------------------|---------------------|
A|---------------------|---5----5--5------5--|---------------------|-------------------7-|
E|---------------------|---------------------|---------------------|-----------------4---|
    fused The life you     offer her she says   she cannot use.
G|---------------------|---------------------|---------------------|---------------------|
D|---7----7--7------7--|---------------------|---7----7--7------7--|---------------------|
A|---------------------|---5----5--5------5--|---------------------|---5----5--5------5--|
E|---------------------|---------------------|---------------------|---------------------|
         You live in a  -  nother world,              She thinks she  won't fit in and 
G|---------------------|---------------------|---4----4--4------4--|---------------------|
D|---7----7--7------7--|---------------------|---------------------|---------------------|
A|---------------------|---5----5--5------5--|---------------------|---7----7--7------7--|
E|---------------------|---------------------|---------------------|---------------------|
     oh, What about her    plans for him?        She bends to his will.

[Chorus]
G|---------------------|---------------------|---------------------|---------------------|
D|---------------------|---0-0-0-0-2-2-2-2---|-----------4-4-4-4---|-----------2-2-2-2---|
A|---0-0-0-0-2-2-2-2---|---------------------|---0-0-0-0-----------|---2-2-2-2-----------|
E|---------------------|---------------------|---------------------|---------------------|
     Hey,                      you better       listen.
G|---------------------|---------------------|---------------------|---------------------|
D|---------------------|---0-0-0-0-2-2-2-2---|-----------4-4-4-4---|-----------2-2-2-2---|
A|---0-0-0-0-2-2-2-2---|---------------------|---0-0-0-0-----------|---2-2-2-2-----------|
E|---------------------|---------------------|---------------------|---------------------|
    'Cause,                    I'm warnin'       you.
G|---------------------|---------------------|---------------------|---------------------|
D|---------------------|---0-0-0-0-2-2-2-2---|-----------4-4-4-4---|-----------2-2-2-2---|
A|---0-0-0-0-2-2-2-2---|---------------------|---0-0-0-0-----------|---2-2-2-2-----------|
E|---------------------|---------------------|---------------------|---------------------|
     Love                      is never          simple.                           With a
G|---------------------|---------------------|---------------------|---------------------|
D|---------------------|---0-0-0-0-2-2-2-2---|-----------4-4-4-4---|-----------2-2-2-2---|
A|---0-0-0-0-2-2-2-2---|---------------------|---0-0-0-0-----------|---2-2-2-2-----------|
E|---------------------|---------------------|---------------------|---------------------|
     com                        plicated         girl.

[Verse 2]
G|---------------------|---------------------|---------------------|---------------------|
D|---7----7--7------7--|---------------------|---7----7--7------7--|---------------------|
A|---------------------|---5----5--5------5--|---------------------|---5----5--5------5--|
E|---------------------|---------------------|---------------------|---------------------|
          You call her     on the phone.             She's got the     other guy on
G|---------------------|---------------------|---4----4--4------4--|---4----4--4---------|
D|---7----7--7------7--|---------------------|---------------------|---------------------|
A|---------------------|---5----5--5------5--|---------------------|-------------------7-|
E|---------------------|---------------------|---------------------|-----------------4---|
    hold. You see the      scene unfold, you    know it very well.
G|---------------------|---------------------|---------------------|---------------------|
D|---7----7--7------7--|---------------------|---7----7--7------7--|---------------------|
A|---------------------|---5----5--5------5--|---------------------|---5----5--5------5--|
E|---------------------|---------------------|---------------------|---------------------|
         Stay inside the   room all day.         When she doesn't      call you pull the 
G|---------------------|---------------------|---4----4--4------4--|---------------------|
D|---7----7--7------7--|---------------------|---------------------|---------------------|
A|---------------------|---5----5--5------5--|---------------------|---7----7--7------7--|
E|---------------------|---------------------|---------------------|---------------------|
     shades. Never seen    act this way, the    girl has hit you hard.
                 you

[Chorus]
G|---------------------|---------------------|---------------------|---------------------|
D|---------------------|---0-0-0-0-2-2-2-2---|-----------4-4-4-4---|-----------2-2-2-2---|
A|---0-0-0-0-2-2-2-2---|---------------------|---0-0-0-0-----------|---2-2-2-2-----------|
E|---------------------|---------------------|---------------------|---------------------|
     Hey,                      you better       listen.
G|---------------------|---------------------|---------------------|---------------------|
D|---------------------|---0-0-0-0-2-2-2-2---|-----------4-4-4-4---|-----------2-2-2-2---|
A|---0-0-0-0-2-2-2-2---|---------------------|---0-0-0-0-----------|---2-2-2-2-----------|
E|---------------------|---------------------|---------------------|---------------------|
    'Cause,                    I'm warnin'       you.
G|---------------------|---------------------|---------------------|---------------------|
D|---------------------|---0-0-0-0-2-2-2-2---|-----------4-4-4-4---|-----------2-2-2-2---|
A|---0-0-0-0-2-2-2-2---|---------------------|---0-0-0-0-----------|---2-2-2-2-----------|
E|---------------------|---------------------|---------------------|---------------------|
     Love                      is never          simple.                           With a
G|---------------------|---------------------|---------------------|---------------------|
D|---------------------|---0-0-0-0-2-2-2-2---|-----------4-4-4-4---|-----------2-2-2-2---|
A|---0-0-0-0-2-2-2-2---|---------------------|---0-0-0-0-----------|---2-2-2-2-----------|
E|---------------------|---------------------|---------------------|---------------------|
     com                        plicated         girl.

[Bridge]
G|---------------------|---------------------|---------------------|---------------------|
D|---3----3--3------3--|---2----2--2------2--|---0----0--0------0--|--0---0--0--------2--|
A|---------------------|---------------------|---------------------|---------------------|
E|---------------------|---------------------|---------------------|---------------------|
     Why bother            making rules, You     know she will not   follow?
G|---------------------|---------------------|---------------------|---------------------|
D|---3----3--3------3--|---2----2--2------2--|---0----0--0------0--|--0---0--0-----5-5---|
A|---------------------|---------------------|---------------------|---------------------|
E|---------------------|---------------------|---------------------|---------------------|
     Someday she'll       find a way  to        remedy                             this

G|---------------------|---------------------|
D|---5----5--5------5--|---2----2--2-----2-2-|
A|---------------------|---------------------|
E|---------------------|---------------------|
     lovely mess she's     made of   

[Interlude]
G|-----------4--4-4-4--|---------------------|-----------4--4-4-4--|---------------------|
D|--7--7-7-7-----------|--0--0-0-0-----------|--7--7-7-7-----------|--0--0-0-0-----------|
A|---------------------|-----------7--7-7-7--|---------------------|-----------7--7-7-7--|
E|---------------------|---------------------|---------------------|---------------------|
    you.

[Chorus]
G|---------------------|---------------------|---------------------|---------------------|
D|---------------------|---------------------|---------------------|---------------------|
A|---------R-----------|-----------R---------|----------R----------|-----------R---------|
E|---------------------|---------------------|---------------------|---------------------|
     Hey,                      you better       listen.
G|---------------------|---------------------|---------------------|---------------------|
D|---------------------|---------------------|--/7-7-7-7-4-4-4-4---|-----------2-2-2-2---|
A|---------R-----------|-----------R---------|---------------------|---2-2-2-2-----------|
E|---------------------|---------------------|---------------------|---------------------|
    'Cause,                    I'm warnin'       you.
G|---------------------|---------------------|---------------------|---------------------|
D|---------------------|---0-0-0-0-2-2-2-2---|-----------4-4-4-4---|-----------2-2-2-2---|
A|---0-0-0-0-2-2-2-2---|---------------------|---0-0-0-0-----------|---2-2-2-2-----------|
E|---------------------|---------------------|---------------------|---------------------|
     Love                      is never          simple.                           With a
G|---------------------|---------------------|---------------------|---------------------|
D|---------------------|---0-0-0-0-2-2-2-2---|-----------4-4-4-4---|-----------2-2-2-2---|
A|---0-0-0-0-2-2-2-2---|---------------------|---0-0-0-0-----------|---2-2-2-2-----------|
E|---------------------|---------------------|---------------------|---------------------|
     com                        plicated         girl.

[Outro] Repeat 4 measures to fade

G|-----------4--4-4-4--|---------------------|---------------------|---------------------|
D|--7--7-7-7-----------|--0--0-0-0-----------|-----------4-4-4-4---|-----------2-2-2-2---|
A|---------------------|-----------7--7-7-7--|---0-0-0-0-----------|---2-2-2-2-----------|
E|---------------------|---------------------|---------------------|---------------------|


*******************
| R  - whole rest
| /  - slide up
*******************
Suggest correction
Creating personal tab
Creating personal tab
You can edit any tab online and save it as your Personal.

You can edit, replace or remove any tab part or add personal notes – all changes will be seen only by you.

Personal tabs can be accessed anytime from any device, even offline.
Learn more »
Give kudos to tab author, rate the tab!
1 2 3 4 5
comments
print report bad tab
guest
You may want to rate the tab now too:
select rating
Wanna post a correction for this tab? Suggest correction