Oops, an error
Loading. Please wait.

Eternal Flame Tab

version 1
version 1

Whole song

Interactive

14,672 views 9 this week
no commentswrite comment
1 2 3 4 5
please rate
add to favorites
launch autoscroll
font size
0
reset
how to read this tab
guitar tuner
Tab Pro tools
  • play this tab
  • loop segment
  • change instrument
  • show fretboard
  • metronome
×
Best way to learn
"Eternal Flame"
Autoscroll
slow
fast
+/-
esc
set tempo
stop
This is a great song-and an accurate tab - just copy/paste this text and re-size
the text to make it legible (Scroll down and you'll know what I'm talking about)

The Bangles
ETERNAL FLAME


Intro
|------------------------------------|e
|-0---0----1---1----0---0----1---1---|B
|-0---0----0---0----0---0----0---0---|G
|---0---0----0---0----0---0----0---0-|D
|------------------------------------|A
|------------------------------------|E

Verse 1
Close your eyes, give me your hand, darling.
|--------------------------------|e
|--------------------------------|B
|--------------------------------|G
|-----0-(0)--0--0-0-2-0-(0)------|D
|-2-2--------------------------0-|A
|----------------------------3---|E

*(FOR 1st VERSE ONLY)
Do you feel my heart beating?  Do you understand?  Do you feel the same? or am I..
|------------------------------------------------------------------------------|e
|------------------------------------------------0-0--(0)----------------------|B
|-----0--(0)-0-0-0-----------------------0-0----------------------0----2-------|G
|---0---------------2-2--2-0------------------3------------0--2-3---2----(0)-0-|D
|-2-----------------------------0-2-(2)----------------------------------------|A
|-----------------------------3------------------------------------------------|E

Is this burning and eternal flame?
|-----------------------------|e
|-----------------------------|B
|----------------0------0-----|G
|-0--0--0-0---0------3-----0--|D
|-----------------------------|A
|-----------------------------|E

2nd VERSE ONLY (or am I only dreaming, or is this burning an eternal flame)
|-----------------------------------------------------|e
|--------------------------1--0--------1--0-----------|B
|--------0----2------------------2--0--------2--0--2--|G
|-0--2-3---2-----0--0---0-----------------------------|D
|-----------------------------------------------------|A
|-----------------------------------------------------|E

Say my name, the sun shines through the rain a whole life so lonely
|-----------------------------------------------------------------------------|e
|-----------------------------------------------------------------------------|B
|-2-2-2-(2)-----0-0--0---0--(0)--------------2--0-----------------------------|G
|------------3---------3--------3-0--0-2--3-------0--0--2-3-2--(2)-0-0--(0)---|D
|---------------------------------------------------------------------------3-|A
|-----------------------------------------------------------------------------|E

I don't wanna lose this feeling  oh________
|--------------------------------------|e
|--------------------------------------|B
|---------------2--0--0-----2------(2)-|G
|-0-2--3-0-2-3-------------------------|D
|--------------------------------------|A
|--------------------------------------|E

Solo (1st Verse Only)
|-------------------------------------------------------------------------------|e
|---------0--0--0-0-1--0-----------------------------------3-1-0-1--(1)---1--3-1|B
|-2-0-----0-----2--------2--0-----2------------------------0------------0-------|G
|---0--3--2-----0-----------2-----2-----2-2--3-----0--0-0--2--------------------|D
|------0--------------------2--2--2--2----3-----0-------------------------------|A
|-----------------------------------------------3-------------------------------|E

|-----------------------|e
|-3-1-0-1--(1)-0-1--0---|B
|-0-------------------2-|G
|-2---------------------|D
|-----------------------|A
|-----------------------|E

Repeat Chorus (Say My Name - Then Repeat First Verse then play below for chorus)

Dreaming or is this burning an eternal flame  oh (Play oh Part 2x)
|-------------------------------------------------------------|e
|-------------1--0--------1--0--------------------------------|B
|-2-----------------2--0--------2--0--2--(0)--------0---0-(0)-|G
|----0--0--0-------------------------------------0----3-------|D
|-------------------------------------------------------------|A
|-------------------------------------------------------------|E
comments
We did not receive enough feedback on this tab! Please rate:
print report bad tab
1 2 3 4 5
I want to post or [tab]
guest
You may want to rate the tab now too:
select rating
Please do not post tabs as comments. Select "correction" instead!