Oops, an error
Loading. Please wait.
We have Chord Pro version of Eternal Flame.
It's the closest thing you can get to the original song and it has interactive parts. Check out the tab »
×
43 views 6 this week
no commentswrite comment
1 2 3 4 5
1 last vote to show rating
add to favorites
×
Save as Personal and add changes to this tab that will be seen only by you. Learn more ›
×
You can save this tab as Personal to edit and correct it or add notes. All changes will be seen only by you. Learn more »
launch autoscroll
font size
0
reset
guitar tuner
edit
Autoscroll
slow
fast
+/-
esc
set tempo
stop
Eternal Flame
The Bangles
Tabs by: LazyDogPeachy

https://www.youtube.com/watch?v=PSoOFn3wQV4
Standard tune; 4/4; Key: G

Note: This is the tab interpretation of the keyboards bass lines transcribed using a bass guitar.
      Play/sing bass tabs/lyrics bound within the measure.

[Intro]
G|---------------------|---------------------|
D|---------------------|---------------------|
A|---------R-----------|---------R---------5-|
E|---------------------|---------------------|

[Verse 1]
G|---------------------|---------------------|---------------------|---------------------|
D|-5--x--5-------------|---------------------|-5~--x---------------|---------------------|
A|----------7~---0--2--|--3~--x--3----5--x-7-|---------7~---x--2---|--3-----x-5----x--5--|
E|---------------------|---------------------|---------------------|---------------------|
     Close  eyes          give me     hand     Do you  feel    my     beating Do you under
     your                   your     darling,                heart
G|-------7h9-----------|---------------------|---------------------|---------------------|
D|-----------9---------|----7h9---7\---------|---------------------|---------------------|
A|--7----------9-------|-7-----------0-------|--5-----x------------|---------------------|
E|-----------------7~--|---------------------|----------7-----x-7--|-5---5-5--5---5-5--5-|
    stand?  Do you       same?      Am I only   drea -  ming?        Is this    an eternal
            feel the                                                    burning

[Verse 2]
G|---------------------|---------------------|---------------------|---------------------|
D|--5--x--5------------|---------------------|-5~--x---------------|---------------------|
A|----------7~---0--2--|--3~--x--3----5--x-7-|---------7~---x--2---|--3-----x-5----x--5--|
E|---------------------|---------------------|---------------------|---------------------|
    flame?  believe       meant to    be       I watch when you are   ing     You belong with
       I       it's                  darling,     you       sleep 

G|-------7h9-----------|---------------------|---------------------|---------------------|
D|-----------9---------|----7h9---7\---------|---------------------|---------------------|
A|--7----------9-------|-7-----------0-------|--5-----x------------|---------------------|
E|-----------------7~--|---------------------|----------7-----x-7--|-5---5-5--5---5-5--5-|
   me,   Do you feel     same?      Am I only   drea -  ming?        Is this    an eternal
              the                                                     burning

[Chorus]
G|---------------------|---------------------|---------------------|---------------------|
D|---------------------|---------------------|---------------------|---------------------|
A|-5---5-5--5---5-5--5-|-5--5-5--5--5-5--5-7-|--8--x-8--10--x--10--|------------------0--|
E|---------------------|---------------------|---------------------|-8----7----5--3------|
   flame?  Say my name   sun shines   my whole  life so lonely and   come ease pain
                         through the           and then you          and  the
                             rain, 
G|---------------------|---------------------|---------------------|
D|---------------------|---------------------|---------------------|
A|-5--x-5--------------|--3---3-3--------3---|--/5--5---5-5-----5--|
E|---------7--x---7----|---------------------|---------------------|
        I don't want      feeling                woh oh
          to loose this
 
[Solo]
G|-------7h9-----------|---------------------|---------------------|---------------------|
D|-----------9---------|----7h9---7\---------|---------------------|---------------------|
A|--7----------9-------|-7-----------0-------|--5-----x------------|---------------------|
E|-----------------7~--|---------------------|----------7-----x-7--|-5---5-5--5---5-5--5-|

[Chorus]
G|---------------------|---------------------|---------------------|---------------------|
D|---------------------|---------------------|---------------------|---------------------|
A|-5---5-5--5---5-5--5-|-5--5-5--5--5-5--5-7-|--8--x-8--10--x--10--|------------------0--|
E|---------------------|---------------------|---------------------|-8----7----5--3------|
           Say my name   sun shines   my whole  life so lonely and   come ease pain
                         through the           and then you          and  the
                             rain, 
G|---------------------|---------------------|---------------------|
D|---------------------|---------------------|---------------------|
A|-5--x-5--------------|--3---3-3--------3---|--/5--5---5-5-----5--|
E|---------7--x---7----|---------------------|---------------------|
        I don't want      feeling                woh oh
          to loose this

[Verse 1] 
(Repeat verse 1 over and over to fade)
G|---------------------|---------------------|---------------------|---------------------|
D|-5--x--5-------------|---------------------|-5~--x---------------|---------------------|
A|----------7~---0--2--|--3~--x--3----5--x-7-|---------7~---x--2---|--3-----x-5----x--5--|
E|---------------------|---------------------|---------------------|---------------------|
     Close  eyes          give me     hand     Do you  feel    my     beating Do you under
     your                   your     darling,            heart
G|-------7h9-----------|---------------------|---------------------|---------------------|
D|-----------9---------|----7h9---7\---------|---------------------|---------------------|
A|--7----------9-------|-7-----------0-------|--5-----x------------|---------------------|
E|-----------------7~--|---------------------|----------7-----x-7--|-5---5-5--5---5-5--5-|
    stand?  Do you       same?      Am I only   drea -  ming?        Is this    an eternal
            feel the                                                    burning
G|---------------------|---------------------|---------------------|---------------------|
D|-5--x--5-------------|---------------------|-5~--x---------------|---------------------|
A|----------7~---0--2--|--3~--x--3----5--x-7-|---------7~---x--2---|--3-----x-5----x--5--|
E|---------------------|---------------------|---------------------|---------------------|
  flame? Close  eyes      give me     hand     Do you  feel    my     beating Do you under
         your               your     darling,            heart
G|-------7h9-----------|---------------------|---------------------|---------------------|
D|-----------9---------|----7h9---7\---------|---------------------|---------------------|
A|--7----------9-------|-7-----------0-------|--5-----x------------|---------------------|
E|-----------------7~--|---------------------|----------7-----x-7--|-5---5-5--5---5-5--5-|
    stand?  Do you       same?      Am I only   drea -  ming?        Is this    an eternal
            feel the                                                    burning
G|---------------------|---------------------|---------------------|---------------------|
D|-5--x--5-------------|---------------------|-5~--x---------------|---------------------|
A|----------7~---0--2--|--3~--x--3----5--x-7-|---------7~---x--2---|--3-----x-5----x--5--|
E|---------------------|---------------------|---------------------|---------------------|
  flame? Close  eyes      give me     hand     Do you  feel    my     beating Do you under
         your               your     darling,            heart
G|-------7h9-----------|---------------------|---------------------|---------------------|
D|-----------9---------|----7h9---7\---------|---------------------|---------------------|
A|--7----------9-------|-7-----------0-------|--5-----x------------|---------------------|
E|-----------------7~--|---------------------|----------7-----x-7--|-5---5-5--5---5-5--5-|
    stand?  Do you       same?      Am I only   drea -  ming?        Aah woh an eternal
            feel the                                                    

G|---------------------|---------------------|---------------------|---------------------|
D|-5--x--5-------------|---------------------|-5~--x---------------|---------------------|
A|----------7~---0--2--|--3~--x--3----5--x-7-|---------7~---x--2---|--3-----x-5----x--5--|
E|---------------------|---------------------|---------------------|---------------------|
    flame? Close  eyes      give me     hand     Do you  feel    my     beating Do you under
         your               your     darling,            heart
G|-------7h9-----------|---------------------|---------------------|---------------------|
D|-----------9---------|----7h9---7\---------|---------------------|---------------------|
A|--7----------9-------|-7-----------0-------|--5-----x------------|---------------------|
E|-----------------7~--|---------------------|----------7-----x-7--|-5---5-5--5---5-5--5-|
    stand?  Do you       same?      Am I only   drea -  ming?        Is this    an eternal
            feel the                                                    burning....

***************************
| R - whole rest
| ~ - vibrato
| / - slide up
| \ - slide down
| x - muted/dead notes
***************************

            
            
Suggest correction
Creating personal tab
Creating personal tab
You can edit any tab online and save it as your Personal.

You can edit, replace or remove any tab part or add personal notes – all changes will be seen only by you.

Personal tabs can be accessed anytime from any device, even offline.
Learn more »
Give kudos to tab author, rate the tab!
1 2 3 4 5
comments
print report bad tab
guest
You may want to rate the tab now too:
select rating
Wanna post a correction for this tab? Suggest correction