Oops, an error
Loading. Please wait.

Hazy Shade Of Winter bass

version 1
version 1

Whole song

  • This is an integrated bass tabs with lyrics for th... Show more

Interactive

139 views 9 this week
no commentswrite comment
1 2 3 4 5
x 3
add to favorites
×
Save as Personal and add changes to this tab that will be seen only by you. Learn more ›
×
You can save this tab as Personal to edit and correct it or add notes. All changes will be seen only by you. Learn more »
launch autoscroll
font size
0
reset
guitar tuner
backing track
0:00
0:00
edit
Autoscroll
slow
fast
+/-
esc
set tempo
stop
Standard tune; 4/4
Note: This is an integrated bass tab with lyrics.  Play/sing the tabs/lyrics bound within a measure.
https://www.youtube.com/watch?v=TxrwImCJCqk

[Pre-intro]
(acapella)
Time, time, time...see what's become of me...

[Intro]
   (guitar solo)
G|---------------------|---------------------|---------------------|---------------------|
D|---------------------|---------------------|---------------------|---------------------|
A|---------R-----------|----------R----------|----------R----------|----------R----------|
E|---------------------|---------------------|---------------------|---------------------|

G|---------------------|---------------------|---------------------|---------------------|
D|---------------------|---------------------|---------------------|---------------------|
A|---------R-----------|----------R----------|----------R----------|-----r---------16\---|
E|---------------------|---------------------|---------------------|---------------------| 

[Verse 1]
G|---------------------|---------------------|---------------------|---------------------|
D|---------------------|---------------------|---------------------|---------------------|
A|--8-8-8-x-8-8-8-x----|--8-8-8-x-8-8-8--0---|--6-6-6-x-6-6-6-x----|--6-6-6-x-6-6-6--0---|
E|---------------------|---------------------|---------------------|---------------------|
    Time , time , time,   see what's     be     come  of  me                         while

G|---------------------|---------------------|---------------------|-----5---6---8\------|
D|---------------------|---------------------|--------5---6--------|--8------------------|
A|--4-4-4-x-4-4-4-x----|--4-4-4-x-4-4-4--0---|--6--8---------------|---------------------|
E|---------------------|---------------------|---------------------|---------------------|
    I looked around      for my possi           bi li ties                  I was so

G|---------------------|---------------------|
D|---------------------|---------------------|
A|--6---6---6---6------|--6---6---6---6\-----|
E|---------------------|---------------------|
    Hard to please.

[Chorus]
G|---------------------|---------------------|---------------------|---------------------|
D|---------------------|---------------------|---------------------|---------------------|
A|--------8\-----------|------------6\-------|------------4\-------|------3--3--3--3-----|
E|---------------------|---------------------|---------------------|---------------------|
  Look  a round          leaves are brown       And  the  sky        is a hazy shade of 

[Verse 2]
G|---------------------|---------------------|---------------------|---------------------|
D|---------------------|---------------------|---------------------|---------------------|
A|-/8-8-8-x-8-8-8-x----|--8-8-8-x-8-8-8--0---|--6-6-6-x-6-6-6-x----|--6-6-6-x-6-6-6--0---|
E|---------------------|---------------------|---------------------|---------------------|
    winter.               Hear the salvation    army band,

G|---------------------|---------------------|---------------------|-----5---6---8\------|
D|---------------------|---------------------|--------5---6--------|--8------------------|
A|--4-4-4-x-4-4-4-x----|--4-4-4-x-4-4-4--0---|--6--8---------------|---------------------|
E|---------------------|---------------------|---------------------|---------------------|
    Down by the river     It's bound to be a   what you go planned         Carry your cup
               side,        better ride than

G|---------------------|---------------------|
D|---------------------|---------------------|
A|--6---6---6---6------|--6---6---6---6\-----|
E|---------------------|---------------------|
    in you hand.

[Chorus]
G|---------------------|---------------------|---------------------|---------------------|
D|---------------------|---------------------|---------------------|---------------------|
A|--------8\-----------|------------6\-------|------------4\-------|------3/15-15-15-15-\|
E|---------------------|---------------------|---------------------|---------------------|
  Look  a round          leaves are brown       And  the  sky        is a hazy shade of 

[Verse 3]
G|---------------------|---------------------|---------------------|---------------------|
D|---------------------|---------------------|---------------------|---------------------|
A|--8-8-8-x-8-8-8-x----|--8-8-8-x-8-8-8--0---|--6-6-6-x-6-6-6-x----|--6-6-6-x-6-6-6--0---|
E|---------------------|---------------------|---------------------|---------------------|
    winter.               Hang on to your       hopes, my friend

G|---------------------|---------------------|---------------------|-----5---6---8\------|
D|---------------------|---------------------|--------5---6--------|--8------------------|
A|--4-4-4-x-4-4-4-x----|--4-4-4-x-4-4-4--0---|--6--8---------------|---------------------|
E|---------------------|---------------------|---------------------|---------------------|
    That's an easy        But if your hopes     simply pretend            That you can
        thing to say,      should pass away

G|---------------------|---------------------|
D|---------------------|---------------------|
A|--6---6---6---6------|--6---6---6---6\-----|
E|---------------------|---------------------|
    build them again.

[Chorus]
G|---------------------|---------------------|---------------------|---------------------|
D|---------------------|---------------------|---------------------|---------------------|
A|--------8\-----------|------------6\-------|------------4\-------|-------3.------------|
E|---------------------|---------------------|---------------------|---------------------|
  Look  a round          grass  is  high      fields are  ripe      it's a spring time of my 
 
G|---------------------|
D|---------------------|
A|---------R-----------|
E|---------------------|
     life.

[Bridge]
G|---------------------|---------------------|---------------------|---------------------|
D|---------------------|---------------------|---------------------|---------------------|
A|--4~-----------------|---------------------|-6~------------------|--8----10--11\-------|
E|---------------------|--4~-----------------|-----------8~--------|---------------------|
   Aahh, seasons change   scenery, Weaving     tapestry, Won't you    mem  ber me?
          with the          time in a                stop and re-

[Solo]
G|---------------------|---------------------|---------------------|---------------------|
D|---------------------|---------------------|---------------------|---------------------|
A|---------R-----------|----------R----------|----------R----------|----------R----------|
E|---------------------|---------------------|---------------------|---------------------|(2x)

[Outro]
G|---------------------|---------------------|---------------------|---------------------|
D|---------------------|---------------------|---------------------|---------------------|
A|---------R-----------|----------R----------|----------R----------|----r---------16\----|
E|---------------------|---------------------|---------------------|---------------------|
     Look  around          leaves are brown   and  the  sky  is a    hazy shade   of      

G|---------------------|---------------------|---------------------|---------------------|
D|---------------------|---------------------|---------------------|---------------------|
A|--8-8-8-8-8-8-8-8----|--6-6-6-6-6-6-6-6----|--4-4-4-4-4-4-4-4----|--3-3-3-3-3-3-3-3----|
E|---------------------|---------------------|---------------------|---------------------|
   winter.     Look  a    round leaves are      brown, There's a      patch of snow on the

G|---------------------|---------------------|---------------------|---------------------|
D|---------------------|---------------------|---------------------|---------------------|
A|-/8-8-8-8-8-8-8-8----|--6-6-6-6-6-6-6-6----|--4-4-4-4-4-4-4-4----|--3-3-3-3-3-3-3-3----|
E|---------------------|---------------------|---------------------|---------------------|
   ground.     Look  a    round leaves are      brown, There's a      patch of snow on the

G|---------------------|---------------------|---------------------|---------------------|
D|---------------------|---------------------|---------------------|---------------------|
A|-/8-8-8-8-8-8-8-8----|--6-6-6-6-6-6-6-6----|--4-4-4-4-4-4-4-4----|--3-3-3-3-3-3-3-3----|
E|---------------------|---------------------|---------------------|---------------------|
   ground.     Look  a    round leaves are      brown, There's a      patch of snow on the

G|---------------------|---------------------|---------------------|---------------------|
D|---------------------|---------------------|---------------------|---------------------|
A|--/8-----------\0----|---------R-----------|----------R----------|----------R----------|
E|---------------------|---------------------|---------------------|---------------------|
    ground.


******************************

| R   - whole rest
| r   - half rest
| /   - slide up
| \   - slide down
| ~   - vibrato
| .   - stacatto
| x   - dead note

******************************
Suggest correction
Creating personal tab
Creating personal tab
You can edit any tab online and save it as your Personal.

You can edit, replace or remove any tab part or add personal notes – all changes will be seen only by you.

Personal tabs can be accessed anytime from any device, even offline.
Learn more »
Give kudos to tab author, rate the tab!
1 2 3 4 5
comments
print report bad tab
guest
You may want to rate the tab now too:
select rating
Wanna post a correction for this tab? Suggest correction