Oops, an error
Loading. Please wait.

Hazy Shade Of Winter Tab

version 3
version 3

Intro

Interactive

1,538 views 87 this week
no commentswrite comment
1 2 3 4 5
3 more votes to show rating
add to favorites
launch autoscroll
font size
0
reset
how to read this tab
guitar tuner
backing track
0:00
0:00
×
Best way to learn
"Hazy Shade Of Winter"
Autoscroll
slow
fast
+/-
esc
set tempo
stop
Author
-------------------------------------------------------------------------------
                        Hazy Shade Of Winter - The Bangles
-------------------------------------------------------------------------------
Tabbed by:mr_jale13


Tuning:Standard
Questions or comments email me mr_jake13@pdmstudios.com

e|--------------------------------------------------------------------------|
B|--------------------------------------------------------------------------|
G|----------------------------------------9---------------------------------|
D|----------------9---11---9-----------9------12b---9--------------------10-|
A|---9---9---12----------------12--------------------------------9---12-----|
E|--------------------------------12---------------------10---10------------|

e|---------------------------------------------------------------------------|
B|---------------------------------------------------------------------------|
G|---------------------------------------------------------------------------|
D|---9------------11---9---11------------------------------------------------|
A|-------12----11------------------------------------------------------------|
E|---------9-----------------------------------------------------------------|

The bend is optional I like it from time to time though.

Also you can play it through the whole song or get the chords.

************************************

| /   slide up
| \   slide down
| h   hammer-on
| p   pull-off
| ~   vibrato
| +   harmonic
| x   Mute note
| b   Bend
| pb  Pre-bend
| br  Bend release
| pbr Pre-bend release
| brb Bend release bend

************************************
Suggest correction
Give kudos to tab author, rate the tab!
1 2 3 4 5
comments
print report bad tab
guest
You may want to rate the tab now too:
select rating
Wanna post a correction for this tab? Suggest correction