Oops, an error
Loading. Please wait.

Hero Takes A Fall bass

22 views 3 this week
no commentswrite comment
1 2 3 4 5
2 more votes to show rating
add to favorites
×
Save as Personal and add changes to this tab that will be seen only by you. Learn more ›
×
You can save this tab as Personal to edit and correct it or add notes. All changes will be seen only by you. Learn more »
launch autoscroll
font size
0
reset
guitar tuner
edit
Autoscroll
slow
fast
+/-
esc
set tempo
stop
Hero Takes A Fall
The Bangles
Tabs by: LazyDogPeachy

https://www.youtube.com/watch?v=l2YW_e_rSMw
Standard tune; 4/4


[Intro]
G|---------------------|---------------------|---------------------|---------------------|
D|---------------------|---------------------|---------------------|---------------------|
A|--5.-5~----0h3-3-0---|-5.-5~----0h3-3-0----|--5.-5~----0h3-3-0---|-5.-5~----0h3-3-0----|
E|---------------------|---------------------|---------------------|---------------------|2x

[Verse 1]
G|---------------------|---------------------|---------------------|---------------------|
D|---------------------|---------------------|---------------------|---------------------|
A|--5.-5~----0h3-3-0---|-5.-5~----0h3-3-0----|--5.-5~----0h3-3-0---|-5.-5~----0h3-3-0----|
E|---------------------|---------------------|---------------------|---------------------|
    The hero is exposed when...                 His crimes are brought to the light of day
G|---------------------|---------------------|---------------------|---------------------|
D|---------------------|---------------------|---------------------|---------------------|
A|--5.-5~----0h3-3-0---|-5.-5~----0h3-3-0----|--5.-5~----0h3-3-0---|-5.-5~----0h3-3-0----|
E|---------------------|---------------------|---------------------|---------------------|
    Won't be feelin' sorry, sorry, sorry        On the judgement day.

[Pre-Chorus]
G|---------------------|---------------------|---------------------|---------------------|
D|---------------------|---------------------|---------------------|---------------------|
A|---------------------|---------3-----3-5---|---------------------|---------3-----3-5---|
E|--3.--3~-------------|---5-5---------------|--3.--3~-------------|---5-5---------------|
           Wasn't it       me who said                 There'd be a    price to pay
 
G|---------------------|---------------------|---------------------|---------------------|
D|---------------------|---------------------|---------------------|---------------------|
A|--3.-3~--------------|-3~------------------|--3~-----------------|-3~------------------|
E|----------3-3-5------|----------3-3-5------|----------3-3-5------|----------3-3-5------|
    And I won't feel bad at all                When the hero takes a fall

G|---------------------|---------------------|
D|---------------------|---------------------|
A|--3~-----------------|-3~------------------|
E|----------3-3-5------|----------3-3-5------|
    When the hero takes a fall

[Interlude]
G|---------------------|---------------------|---------------------|---------------------|
D|---------------------|---------------------|---------------------|---------------------|
A|--5.-5~----0h3-3-0---|-5.-5~----0h3-3-0----|--5.-5~----0h3-3-0---|-5.-5~----0h3-3-0----|
E|---------------------|---------------------|---------------------|---------------------|

[Verse 2]
G|---------------------|---------------------|---------------------|---------------------|
D|---------------------|---------------------|---------------------|---------------------|
A|--5.-5~----0h3-3-0---|-5.-5~----0h3-3-0----|--5.-5~----0h3-3-0---|-5.-5~----0h3-3-0----|
E|---------------------|---------------------|---------------------|---------------------|
    Your mother told you stories                You substitute with girls who tell you more

G|---------------------|---------------------|---------------------|---------------------|
D|---------------------|---------------------|---------------------|---------------------|
A|--5.-5~----0h3-3-0---|-5.-5~----0h3-3-0----|--5.-5~----0h3-3-0---|-5.-5~----0h3-3-0----|
E|---------------------|---------------------|---------------------|---------------------|
    Suddenly a sycophantic chance               Opens at your door.

[Pre-Chorus]
G|---------------------|---------------------|---------------------|---------------------|
D|---------------------|---------------------|---------------------|---------------------|
A|---------------------|---------3-----3-5---|---------------------|---------3-----3-5---|
E|--3.--3~-------------|---5-5---------------|--3.--3~-------------|---5-5---------------|
           We’re seeing    through you now              saw it         all before

G|---------------------|---------------------|---------------------|---------------------|
D|---------------------|---------------------|---------------------|---------------------|
A|--3.-3~--------------|-3~------------------|--3~-----------------|-3~------------------|
E|----------3-3-5------|----------3-3-5------|----------3-3-5------|----------3-3-5------|
    And I won't feel bad at all                 When the hero takes a fall

G|---------------------|---------------------|
D|---------------------|---------------------|
A|--3~-----------------|-3~------------------|
E|----------3-3-5------|----------3-3-5------|
    When the hero takes a fall.

[Solo]
G|---------------------|---------------------|---------------------|---------------------|
D|---------------------|---------------------|---------------------|---------------------|
A|--5.-5~----0h3-3-0---|-5.-5~----0h3-3-0----|--5.-5~----0h3-3-0---|-5.-5~----0h3-3-0----|
E|---------------------|---------------------|---------------------|---------------------|2x
                                                                                    Oh
[Chorus]
G|---------------------|---------------------|---------------------|---------------------|
D|---------------------|---------------------|---------------------|---------------------|
A|---------------------|---------3-----3-----|--5.-5~----0h3-3-0---|-5.-5~----0h3-3-0----|
E|--3-3~----3-3-3-3----|-5-5~----------------|---------------------|---------------------|2x
    oh          Oh       oh                      oh...                               Oh
G|---------------------|---------------------|---------------------|---------------------|
D|---------------------|---------------------|---------------------|---------------------|
A|---------------------|---------3-----3-----|--5.-5~----0h3-3-0---|-5.-5~----0h3-3-0----|
E|--3-3~----3-3-3-3----|-5-5~----------------|---------------------|---------------------|
    oh          Oh       oh                      oh huh oh   

[Interlude 2]                       
G|---------------------|---------------------|---------------------|---------------------|
D|---------------------|---------------------|---------------------|---------------------|
A|--5.-5~----0h3-3-0---|-5.-5~----0h3--0-----|--5.-5~----0h3-3-0---|-5.-5~----0h3--0-----|
E|---------------------|---------------------|---------------------|---------------------|2x

[Verse 3]
G|---------------------|---------------------|---------------------|---------------------|
D|---------------------|---------------------|---------------------|---------------------|
A|--5.-5~----0h3-3-0---|-5.-5~----0h3-3-0----|--5.-5~----0h3-3-0---|-5.-5~----0h3-3-0----|
E|---------------------|---------------------|---------------------|---------------------|
    Emotion is a virtue                          For you it is the one fatal flaw
G|---------------------|---------------------|---------------------|---------------------|
D|---------------------|---------------------|---------------------|---------------------|
A|--5.-5~----0h3-3-0---|-5.-5~----0h3-3-0----|--5.-5~----0h3-3-0---|-5.-5~----0h3-3-0----|
E|---------------------|---------------------|---------------------|---------------------|
    Sittin' on your throne and drinkin',        She’ll return your call.
                             thinkin' 
[Pre-Chorus]
G|---------------------|---------------------|---------------------|---------------------|
D|---------------------|---------------------|---------------------|---------------------|
A|---------------------|---------3-----3-5---|---------------------|---------3-----3-5---|
E|--3.--3~-------------|---5-5---------------|--3.--3~-------------|---5-5---------------|
           Every stories    got an ending       "Look out, here it    comes, here it comes,"
 
G|---------------------|---------------------|---------------------|---------------------|
D|---------------------|---------------------|---------------------|---------------------|
A|--3.-3~--------------|-3~------------------|--3~-----------------|-3~------------------|
E|----------3-3-5------|----------3-3-5------|----------3-3-5------|----------3-3-5------|
    And I won't feel bad at all                When the hero takes a fall

G|---------------------|---------------------|---------------------|---------------------|
D|---------------------|---------------------|---------------------|---------------------|
A|--3~-----------------|-3~------------------|--5.-5~----0h3-3-0---|-5.-5~----0h3-3-0----|
E|----------3-3-5------|----------3-3-5------|---------------------|---------------------|
    When the hero takes a fall                                       oh          

G|---------------------|---------------------|
D|---------------------|---------------------|
A|--5.-5~----0h3-3-0---|-5.-5~----0h3-3-0----|
E|---------------------|---------------------|
    woh                  oh...             Oh

[End Chorus]
G|---------------------|---------------------|---------------------|---------------------|
D|---------------------|---------------------|---------------------|---------------------|
A|---------------------|---------3-----3-----|--5.-5~----0h3-3-0---|-5.-5~----0h3-3-0----|
E|--3-3~----3-3-3-3----|-5-5~----------------|---------------------|---------------------|2x
    oh          Oh       oh                      oh...                               Oh

G|---------------------|---------------------|---------------------|---------------------|
D|---------------------|---------------------|---------------------|---------------------|
A|---------------------|---------------------|--5.-5~----0h3-3-0---|-5.-5~----0h3-3-0----|
E|--3-3~----3-3-3-3----|-1-1~----1-1-1-1-----|---------------------|---------------------|
    oh          Oh       oh                                                   

G|---------------------|---------------------|---------------------|---------------------|
D|---------------------|---------------------|---------------------|---------------------|
A|---------------------|-----------------0---|---/5~---------------|----------R----------|
E|--3---3~-----3-------|--1-1.----1-1--------|---------------------|---------------------|

*****************************
| ~  - vibrato
| .  - staccato
| /  - slide up
| h  - hammer on
| R  - whole rest
*****************************
Suggest correction
Creating personal tab
Creating personal tab
You can edit any tab online and save it as your Personal.

You can edit, replace or remove any tab part or add personal notes – all changes will be seen only by you.

Personal tabs can be accessed anytime from any device, even offline.
Learn more »
Give kudos to tab author, rate the tab!
1 2 3 4 5
comments
print report bad tab
guest
You may want to rate the tab now too:
select rating
Wanna post a correction for this tab? Suggest correction