Oops, an error
Loading. Please wait.

James bass

31 views 1 this week
no commentswrite comment
1 2 3 4 5
2 more votes to show rating
add to favorites
×
Save as Personal and add changes to this tab that will be seen only by you. Learn more ›
×
You can save this tab as Personal to edit and correct it or add notes. All changes will be seen only by you. Learn more »
launch autoscroll
font size
0
reset
guitar tuner
edit
Autoscroll
slow
fast
+/-
esc
set tempo
stop
https://www.youtube.com/watch?v=NpXZWSvtmaw
Standard tune: 4/4
Note: This is an integrated bass tabs and lyrics; play/sing tabs/lyrics bound within a measure.

[Intro]
G|---------------------|---------------------|---------------------|------------5--5/7-5-|
D|---------------------|---------------------|---------------------|---------------------|
A|---------------------|----------R----------|----------R----------|----r----------------|
E|---1~----------------|---------------------|---------------------|---------------------|

G|---------------------|---------------------|---------------------|---------------------|
D|-----------0-/3-3-0--|---------------------|------------0-3h5-0--|---------------------|
A|---------------------|--1.--1.---1h3-3-3---|---------------------|--1.--1.---1h3-3-3---|
E|---1.--1.------------|---------------------|---1.--1.------------|---------------------|

G|---------------------|---------------------|
D|-------/3~-----------|---------------------|
A|---------------------|----3~------3~-------|
E|---------------------|---------------------|

[Verse 1]
G|---------------------|---------------------|---------------------|---------------------|
D|---------------------|---------------------|---------------------|---------------------|
A|---------------------|---1---1-1-3-3-3-3---|---------------------|---1---1-1-3-3-3-3---|
E|---1~--0/1-1-1-1~----|---------------------|---1~--0/1-1-1-1~----|---------------------|
     I knew it'd turn   I'm keeping one          train;
      out like this             foot on the

G|---------------------|---------------------|---------------------|---------------------|
D|---------------------|---------------------|---------------------|---------------------|
A|---------------------|---1---1-1-3-3-3-3---|---------------------|---1---1-1-3-3-3-3---|
E|---1~--0/1-1-1-1~----|---------------------|---1~--0/1-1-1-1~----|---------------------|
     And I must be a      To ever  take up       James.                           It sounds fa-
          masochist             with you,

G|---------------------|---------------------|---------------------|---------------------|
D|---------------------|---------------------|---------------------|---------------------|
A|-1~-----1----0----0--|--3~--------3--5--3--|--1~--------1---0~---|--3~--------(/5)-----|
E|---------------------|---------------------|---------------------|---------------------|
   miliar that tone in    voice, Your gonna     go James, you leave   choice,    woh oh
                your                                         me no

[Chrorus]
G|---------------------|---------------------|---------------------|---------------------|
D|-----------0-3-3-0---|---------------------|---------------------|---------------------|
A|---------------------|-1--1--1----3--3--3--|---------------------|----------/3~--------|
E|--1~-----------------|---------------------|---1~----------------|---------------------|
    James                letting me down again   James.                           Well it

[Verse 2]   
G|---------------------|---------------------|---------------------|---------------------|
D|---------------------|---------------------|---------------------|---------------------|
A|---------------------|---1---1-1-3-3-3-3---|---------------------|---1---1-1-3-3-3-3---|
E|---1~--0/1-1-1-1~----|---------------------|---1~--0/1-1-1-1~----|---------------------|
     wasn't so long ago    I saw   love in      eyes,                                And
                                    your    

G|---------------------|---------------------|---------------------|---------------------|
D|---------------------|---------------------|---------------------|---------------------|
A|---------------------|---1---1-1-3-3-3-3---|---------------------|---1---1-1-3-3-3-3---|
E|---1~--0/1-1-1-1~----|---------------------|---1~--0/1-1-1-1~----|---------------------|
     I think I should     But I'm   somewhat     prised,                        You think there's
           have known,    feeling      sur-

G|---------------------|---------------------|---------------------|---------------------|
D|---------------------|---------------------|---------------------|---------------------|
A|-1~-----1----0----0--|--3~--------3--5--3--|--1~--------1---0~---|--3~--------(/5)-----|
E|---------------------|---------------------|---------------------|---------------------|
   someone     better     you,      You think   too young,    To      through    Oh,
                 for                  I'm                 see this 
                                                            thing
[Chrorus]
G|---------------------|---------------------|---------------------|---------------------|
D|-----------0-3-3-0---|---------------------|---------------------|---------------------|
A|---------------------|-1--1--1----3--3--3--|---------------------|----------/3~--------|
E|--1~-----------------|---------------------|---1~----------------|---------------------|
    James                letting me down again   James.

[Bridge] 
G|---------------------|---------------------|---------------------|---------------------|
D|--3------3-3---------|---------------------|--3------3-3---------|---------------------|
A|----3-3------3-3-----|---1~--------3~------|----3-3------3-3-----|---1~--------3~------|
E|---------------------|---------------------|---------------------|---------------------|

    Oh let me down        down       down       Oh let me down        let me down down down down
G|---------------------|---------------------|---------------------|---------------------|
D|--3------3-3---------|---------------------|--3------3-3---------|---------------------|
A|----3-3------3-3-----|---1~--------3~------|----3-3------3-3-----|---1~--------3~------|
E|---------------------|---------------------|---------------------|---------------------|

    Oh let me down        down       down       Oh let me down        let me down down down down
G|---------------------|---------------------|---------------------|---------------------|
D|--3------3-3---------|---------------------|---------------------|---------------------|
A|----3-3------3-3-----|---1~--------3~------|---------R-----------|--3-3-3--3-3-3-3-3-3-|
E|---------------------|---------------------|---------------------|---------------------|
    Oh let me down         down.....    

[Verse 3]
G|---------------------|---------------------|---------------------|---------------------|
D|---------------------|---------------------|---------------------|---------------------|
A|---------------------|---1---1-1-3-3-3-3---|---------------------|---1---1-1-3-3-3-3---|
E|---1~--0/1-1-1-1~----|---------------------|---1~--0/1-1-1-1~----|---------------------|
  I  knew it'd turn out    I'm     one foot      door.                              And
           like this     keeping   out the

G|---------------------|---------------------|---------------------|---------------------|
D|---------------------|---------------------|---------------------|---------------------|
A|---------------------|---1---1-1-3-3-3-3---|---------------------|---1---1-1-3-3-3-3---|
E|---1~--0/1-1-1-1~----|---------------------|---1~--0/1-1-1-1~----|---------------------|
     I don't think I       that    love          more.                           And now I
       should trust       kind of   any -

G|---------------------|---------------------|---------------------|---------------------|
D|---------------------|---------------------|---------------------|---------------------|
A|-1~-----1----0----0--|--3~--------3--5--3--|--1~--------1---0~---|---------------------|
E|---------------------|---------------------|---------------------|-3-3-3-3-3-3-3-3-3-3-|
   realize     I had it   wrong,    I'll only   take this     trip   long....       woh,           
                  all                                       for so

[End Chorus]   
G|---------------------|---------------------|---------------------|---------------------|
D|-----------0-3-3-0---|---------------------|-----------0-/3-3-0--|---------------------|
A|---------------------|-1--1--1----3--3--3--|---------------------|-1--1--1----3--3--3--|
E|--1~-----------------|---------------------|---1~----------------|---------------------|
    James                letting me down again   James.    Guess     this is    bye
                                                                      good-

G|---------------------|---------------------|---------------------|---------------------|
D|---------------------|---------------------|---------------------|---------------------|
A|--5---5-8-8-5-5------|---8--8--8--8.-----8-|-3---3-3-3-3-3-3-3---|---3-3-3-3-3-3-3-3---|
E|---------------------|---------------------|---------------------|---------------------|
    James                 Letting   down   a   gain                   Letting me down again
                             me
G|---------------------|---------------------|---------------------|---------------------|
D|---------------------|---------------------|---------------------|---------------------|
A|---------------------|---------R-----------|----------R----------|----------R----------|
E|--1~-----------------|---------------------|---------------------|---------------------|
    James.


************************************

| .  - staccato
| ~  - vibrato
| h  - hammer on
| () - optional note to play or not
| /  - slide up
| \  - slide down
| R  - whole rest
| r  - half rest

***********************************

            
            
Suggest correction
Creating personal tab
Creating personal tab
You can edit any tab online and save it as your Personal.

You can edit, replace or remove any tab part or add personal notes – all changes will be seen only by you.

Personal tabs can be accessed anytime from any device, even offline.
Learn more »
Give kudos to tab author, rate the tab!
1 2 3 4 5
comments
print report bad tab
guest
You may want to rate the tab now too:
select rating
Wanna post a correction for this tab? Suggest correction