Oops, an error
Loading. Please wait.

Restless bass

25 views 1 this week
no commentswrite comment
1 2 3 4 5
2 more votes to show rating
add to favorites
×
Save as Personal and add changes to this tab that will be seen only by you. Learn more ›
×
You can save this tab as Personal to edit and correct it or add notes. All changes will be seen only by you. Learn more »
launch autoscroll
font size
0
reset
guitar tuner
edit
Autoscroll
slow
fast
+/-
esc
set tempo
stop
https://www.youtube.com/watch?v=qeulOi1DFQw
Note: This is an integrated bass tabs with lyrics; play/sing tabs/lyrics bound within the measure.
Standard tune; 4/4

[Intro]
G|---------------------|---------------------|---------------------|---------------------|
D|---------------------|---------------------|---------------------|---3/5~--------------|
A|---3-------------0---|---3-------------0---|---3--3--------------|---------------------|
E|-------1--1----------|-------1--1----------|------------1-0-1----|---------------------|

[Vesre 1]
G|---------------------|---------------------|---------------------|---------------------|
D|---------------------|---------------------|---------------------|---------3-3---------|
A|---3-------------0---|---1-------------0---|---3-------------0---|---3-------------0---|
E|--------3-3----------|--------1-1----------|---------1-1---------|---------------------|
     Saw your head turn    bit too far to the   right,  now.
                   a
G|---------------------|---------------------|---------------------|---------------------|
D|---------------------|---------------------|---------------------|---------------------|
A|---3-------------0---|---1-------------0---|---------------------|---------------------|
E|--------3-3----------|--------1-1----------|---3-----3-3-----0---|---3-----3-3-----0---|
     Saw the eye go a      little spark when     walks    by           now.
                                     she
G|---------------------|---------------------|---------------------|---------------------|
D|---------------------|---------------------|---------------------|---------------------|
A|---------------------|---------------------|---------------------|---------------------|
E|---1-----1-1-----0---|---1-----1-1-----0---|---1-----1-1-----0---|---3-3-3-3-3-3-3-3---|
     But if you wanna      You wanna love        I'll leave it up to   you.
               love,         another girl,

[Chorus]
G|---------------------|---------------------|---------------------|---------------------|
D|----------------3~---|----------------3~---|----------------3~---|---5-5---5-5-5-5-5---|
A|------r-----/3-------|------r-----/3-------|------r-----/3-------|---------------------|
E|---------------------|---------------------|---------------------|---------------------|
       But I    won't    (You feel restless)  While you  feel restless (restless)     
             be tested,

[Vesre 2]
G|---------------------|---------------------|---------------------|---------------------|
D|---------------------|---------------------|---------------------|---------3-3---------|
A|---3-------------0---|---1-------------0---|---3-------------0---|---3-------------0---|
E|--------3-3----------|--------1-1----------|---------1-1---------|---------------------|
     Now I'm wondering     every time that you   hold me.
G|---------------------|---------------------|---------------------|---------------------|
D|---------------------|---------------------|---------------------|---------------------|
A|---3-------------0---|---1-------------0---|---------------------|---------------------|
E|--------3-3----------|--------1-1----------|---3-----3-3-----0---|---3-----3-3-----0---|
     Well, should I       anything that you've   told                  me?
         question
G|---------------------|---------------------|---------------------|---------------------|
D|---------------------|---------------------|---------------------|---------------------|
A|---------------------|---------------------|---------------------|---------------------|
E|---1-----1-1-----0---|---1-----1-1-----0---|---1-----1-1-----0---|---3-3-3-3-3-3-3-3---|
     But if you wanna      You wanna love        I'll leave it up to   you.
               love,         another girl,

[Chorus]
G|---------------------|---------------------|---------------------|---------------------|
D|----------------3~---|----------------3~---|----------------3~---|---5-5---5-5-5-5-5---|
A|------r-----/3-------|------r-----/3-------|------r-----/3-------|---------------------|
E|---------------------|---------------------|---------------------|---------------------|
       But I    won't    (You feel restless)   While you  feel        (restless)  yeah.   
             be tested,                              restless

[Mid 8]
G|---------------------|---------------------|---------------------|---------------------|
D|-----------------1-x-|-------------1-x-----|---3-1.----------1-x-|----1/3-3-3-3--3-3---|
A|----r---3~---3~------|----3-3-3------------|----------3-3-3------|---------------------|
E|---------------------|---------------------|---------------------|---------------------|

G|---------------------|---------------------|---------------------|--------3-x----------|
D|-----------------1-x-|-------------1-1-----|----3-1----------1-x-|--1/5-5-----3-3-3/5~-|
A|----3~--3~--3~-------|----3-3-3------------|------------3-3------|---------------------|
E|---------------------|---------------------|---------------------|---------------------|

[Solo]
G|---------------------|---------------------|---------------------|---------------------|
D|---------------------|---------------------|---------------------|---------3-3---------|
A|---3-------------0---|---1-------------0---|---3-------------0---|---3-------------0---|
E|--------3-3----------|--------1-1----------|---------1-1---------|---------------------| (2x)

[Verse 3]
G|---------------------|---------------------|---------------------|---------------------|
D|---------------------|---------------------|---------------------|---------------------|
A|---3-------------0---|---1-------------0---|--------3\0----------|----------R----------|
E|--------3-3----------|--------1-1----------|---------------------|---------------------|
     I remember when       you and I were a       nation.    
G|---------------------|---------------------|---------------------|---------------------|
D|---------------------|---------------------|---------------------|---------------------|
A|---3-------------0---|---1-------------0---|---------------------|---------------------|
E|--------3-3----------|--------1-1----------|---3-----3-3-----0---|---3-----3-3-----0---|
     I could trust you in any dark  situ    -    a  -                  tion.
G|---------------------|---------------------|---------------------|---------------------|
D|---------------------|---------------------|---------------------|---------------------|
A|---------------------|---------------------|---------------------|---------------------|
E|---1-----1-1-----0---|---1-----1-1-----0---|---1-----1-1-----0---|---3-3-3-3-3-3-3-3---|
     But if you wanna      You wanna love        I'll leave it up to   you.
               love,         another girl,  

[Chorus]
G|---------------------|---------------------|---------------------|---------------------|
D|----------------3~---|----------------3~---|----------------3~---|---5-5---5-5-5-5-5---|
A|------r-----/3-------|------r-----/3-------|------r-----/3-------|---------------------|
E|---------------------|---------------------|---------------------|---------------------|
       But I    won't    (You feel restless)  While you  feel restless (restless)     
             be tested,

[Outro]
G|---------------------|---------------------|---------------------|---------------------|
D|---------------------|---------------------|---------------------|---------3-3---------|
A|---3-------------0---|---1-------------0---|---3-------------0---|---3-------------0---|
E|--------3-3----------|--------1-1----------|---------1-1---------|---------------------| (2x)

G|---------------------|---------------------|---------------------|---------------------|
D|---------------------|---------------------|---------------------|---------3-3~--------|
A|-------r------3~-----|-------r-------1~----|---3-------------0---|---3-----------------|
E|---------------------|---------------------|---------1-1---------|---------------------|


************************

| R - whole rest
| r - half rest
| ~ - vibrato
| . - staccato
| / - slide up
| \ - slide down
| x - dead note

************************
Suggest correction
Creating personal tab
Creating personal tab
You can edit any tab online and save it as your Personal.

You can edit, replace or remove any tab part or add personal notes – all changes will be seen only by you.

Personal tabs can be accessed anytime from any device, even offline.
Learn more »
Give kudos to tab author, rate the tab!
1 2 3 4 5
comments
print report bad tab
guest
You may want to rate the tab now too:
select rating
Wanna post a correction for this tab? Suggest correction