Oops, an error
Loading. Please wait.

Some Dreams Come True tab

37 views 6 this week
no commentswrite comment
1 2 3 4 5
2 more votes to show rating
add to favorites
×
Save as Personal and add changes to this tab that will be seen only by you. Learn more ›
×
You can save this tab as Personal to edit and correct it or add notes. All changes will be seen only by you. Learn more »
launch autoscroll
font size
0
reset
how to read this tab
guitar tuner
edit
Autoscroll
slow
fast
+/-
esc
set tempo
stop
"Some Dreams Come True"
The Bangles
Tab By: LazyDogPeachy
https://www.youtube.com/watch?v=oOWDANYIIOY

Standard tune; Key: D ; 4/4
Note: This is an integrated tab & chords w/ lyrics for the Rhythm Guitars ONLY

Use standard chords if not provided

G5    -  355xxx
E/F#  -  222xxx
E/G   -  322xxx

[Intro]
(w/ heavy Distortion - back rake strumming)
e|-----------|----------|---------|---------|
B|--5-5------|-3-3------|-5-5-----|-5-5-----|
G|--6-6---r--|-4-4---r--|-6-6---r-|-6-6---r-|
D|--7--------|-5--------|-7-------|-7-------|
A|-----------|----------|---------|---------|
E|-----------|----------|---------|---------| 2x

(Distortion off)
e|-2---2---3-|--3----3--|-2--2--5-|--5---5--|
B|---3---3---|3--3------|--3--3---|3--3-----|
G|-----------|----------|---------|---------|
D|-----------|----------|---------|---------|
A|-----------|----------|---------|---------|
E|-----------|----------|---------|---------|

[Verse 1]
(Distortion off - one strum per chord)
D
I've seen the shadows fall
D                      A
Colors that fade on my wall
D
Dressed up nowhere to go
D                     A
It's all in my mind I know

[Refrain]
(Distortion on - Palm muted)
         Em   F#m  G5
But it's al - right now
      Em  F#m  G5
We're on  our  way

[Chorus]
(Distortion on - back rake strumming)

e|---------------|--------------|-------------|-------------|
B|--5-5----------|-3-3----------|-5-5---------|-5-5---------|
G|--6-6-----r----|-4-4-----r----|-6-6-----r---|-6-6-----r---|
D|--7------------|-5------------|-7-----------|-7-----------|
A|---------------|--------------|-------------|-------------|
E|---------------|--------------|-------------|-------------| 
       Lay me down     moonlight     So close      (So close
       in the                        to you          to you)

e|---------------|--------------|-------------|-------------|
B|--5-5----------|-3-3----------|-5-5---------|-5-5---------|
G|--6-6-----r----|-4-4-----r----|-6-6-----r---|-6-6-----r---|
D|--7------------|-5------------|-7-----------|-7-----------|
A|---------------|--------------|-------------|-------------|
E|---------------|--------------|-------------|-------------| 
       Maybe we're      dreamers     Some dreams    (Some dreams
       just                          come true       come true)

[Vesre 2]
(Distortion off - one strum per chord)
D
Lips move but not a sound
D                          A
When the words fall to the ground
D
Eyes watch but seldom see
D            A
The possibilities

[Refrain]
(Distortion on - Palm muted)
         Em   F#m   G5
But it's al - right now
      Em  F#m  G5
We're on  our  way

[Chorus 2]
(Distortion on)
e|---------------|--------------|-------------|-------------|
B|--5-5----------|-3-3----------|-5-5---------|-5-5---------|
G|--6-6-----r----|-4-4-----r----|-6-6-----r---|-6-6-----r---|
D|--7------------|-5------------|-7-----------|-7-----------|
A|---------------|--------------|-------------|-------------|
E|---------------|--------------|-------------|-------------| 
       Lay me down  moonlight        So close    (So close
       in the                          to you        to you)

e|---------------|--------------|-------------|-------------|
B|--5-5----------|-3-3----------|-5-5---------|-5-5---------|
G|--6-6-----r----|-4-4-----r----|-6-6-----r---|-6-6-----r---|
D|--7------------|-5------------|-7-----------|-7-----------|
A|---------------|--------------|-------------|-------------|
E|---------------|--------------|-------------|-------------| 
       Maybe we're  dreamers         Some dreams  (Some dreams
       just                          come true     come true)

e|---------------|--------------|-------------|-------------|
B|--5-5----------|-3-3----------|-5-5---------|-5-5---------|
G|--6-6-----r----|-4-4-----r----|-6-6-----r---|-6-6-----r---|
D|--7------------|-5------------|-7-----------|-7-----------|
A|---------------|--------------|-------------|-------------|
E|---------------|--------------|-------------|-------------| 
       When we're   gether           There's     (nothing that
       to-                           nothing we    we can't do)
                                     can't do

e|---------------|--------------|-------------|-------------|
B|--5-5----------|-3-3----------|-5-5---------|-5-5---------|
G|--6-6-----r----|-4-4-----r----|-6-6-----r---|-6-6-----r---|
D|--7------------|-5------------|-7-----------|-7-----------|
A|---------------|--------------|-------------|-------------|
E|---------------|--------------|-------------|-------------| 
       Maybe we're    dreamers       Some dreams  (Some dreams
       just                          come true       come true)

[Bridge]
Bm7                      G
   Moving in circles that  we create
                A
Seeing whatever we choose
                  Em       F#m  G
Hear only voices that call your name

[Solo]
Gtr 2
e|-----------|----------|---------|---------|
B|--5-5------|-3-3------|-5-5-----|-5-5-----|
G|--6-6---r--|-4-4---r--|-6-6---r-|-6-6---r-|
D|--7--------|-5--------|-7-------|-7-------|
A|-----------|----------|---------|---------|
E|-----------|----------|---------|---------| 2x
    
[Refrain]
(Distortion on)
          Em   F#m   G5
But it's al - right now
      Em  F#m  G5    Em  E/F#  E/G
We're on  our  way

[Outro]
(keep repeating chorus until fade)

e|---------------|--------------|-------------|-------------|
B|--5-5----------|-3-3----------|-5-5---------|-5-5---------|
G|--6-6-----r----|-4-4-----r----|-6-6-----r---|-6-6-----r---|
D|--7------------|-5------------|-7-----------|-7-----------|
A|---------------|--------------|-------------|-------------|
E|---------------|--------------|-------------|-------------| 
       Lay me down  moonlight        So close    (So close
       in the                          to you        to you)

e|---------------|--------------|-------------|-------------|
B|--5-5----------|-3-3----------|-5-5---------|-5-5---------|
G|--6-6-----r----|-4-4-----r----|-6-6-----r---|-6-6-----r---|
D|--7------------|-5------------|-7-----------|-7-----------|
A|---------------|--------------|-------------|-------------|
E|---------------|--------------|-------------|-------------| 
       Maybe we're  dreamers         Some dreams  (Some dreams
       just                          come true     come true)

e|---------------|--------------|-------------|-------------|
B|--5-5----------|-3-3----------|-5-5---------|-5-5---------|
G|--6-6-----r----|-4-4-----r----|-6-6-----r---|-6-6-----r---|
D|--7------------|-5------------|-7-----------|-7-----------|
A|---------------|--------------|-------------|-------------|
E|---------------|--------------|-------------|-------------| 
       When we're   gether           There's     (nothing that
       to-                           nothing we    we can't do)
                                     can't do

e|---------------|--------------|-------------|-------------|
B|--5-5----------|-3-3----------|-5-5---------|-5-5---------|
G|--6-6-----r----|-4-4-----r----|-6-6-----r---|-6-6-----r---|
D|--7------------|-5------------|-7-----------|-7-----------|
A|---------------|--------------|-------------|-------------|
E|---------------|--------------|-------------|-------------| 
       Maybe we're    dreamers       Some dreams  (Some dreams
       just                          come true       come true)

e|---------------|--------------|-------------|-------------|
B|--5-5----------|-3-3----------|-5-5---------|-5-5---------|
G|--6-6-----r----|-4-4-----r----|-6-6-----r---|-6-6-----r---|
D|--7------------|-5------------|-7-----------|-7-----------|
A|---------------|--------------|-------------|-------------|
E|---------------|--------------|-------------|-------------| 
       Lay me down  moonlight        So close    (So close
       in the                          to you        to you)

e|---------------|--------------|-------------|-------------|
B|--5-5----------|-3-3----------|-5-5---------|-5-5---------|
G|--6-6-----r----|-4-4-----r----|-6-6-----r---|-6-6-----r---|
D|--7------------|-5------------|-7-----------|-7-----------|
A|---------------|--------------|-------------|-------------|
E|---------------|--------------|-------------|-------------| 
       Maybe we're  dreamers         Some dreams  (Some dreams
       just                          come true     come true)


**********************
| r - half rest
**********************

            
            
Suggest correction
Creating personal tab
Creating personal tab
You can edit any tab online and save it as your Personal.

You can edit, replace or remove any tab part or add personal notes – all changes will be seen only by you.

Personal tabs can be accessed anytime from any device, even offline.
Learn more »
Give kudos to tab author, rate the tab!
1 2 3 4 5
comments
print report bad tab
guest
You may want to rate the tab now too:
select rating
Wanna post a correction for this tab? Suggest correction