Oops, an error
Loading. Please wait.

Something To Believe In bass

16 views 1 this week
no commentswrite comment
1 2 3 4 5
2 more votes to show rating
add to favorites
×
Save as Personal and add changes to this tab that will be seen only by you. Learn more ›
×
You can save this tab as Personal to edit and correct it or add notes. All changes will be seen only by you. Learn more »
launch autoscroll
font size
0
reset
guitar tuner
edit
Autoscroll
slow
fast
+/-
esc
set tempo
stop
Something To Believe In
The Bangles
Tabs by LazyDogPeachy

https://www.youtube.com/watch?v=SNYK6QoG46s
Standard tune; 4/4

Note: This is an integrated bass tabs for Bass 1, Bass 2 and lyrics. Play/sing tabs/lyrics bound
      within a measure.
 
      Bass 1 - Acoustic bass, clean (pick)
      Bass 2 - Electric bass, with compression efx (finger picked)

[Intro]
Bass 1 
G|-2--2-2-2--2-2--2-2-2-2--|-1h2-2-2-2--2-2--2-2-0-0-|-0h2-2-2-2--2-2--2-2-0-0-|-0h2-2-2-2--2-2--2-2-0-0-|
D|-------------------------|-------------------------|-------------------------|-------------------------|
A|-0~----------------------|-0~----------------------|-0~----------------------|-0~----------------------|
E|-------------------------|-------------------------|-------------------------|-------------------------|
Bass 2
G|-------------------------|-------------------------|-------------------------|-------------------------|
D|-------------------------|-------------------------|-------------------------|-------------------------|
A|-----------R-------------|------------R------------|-----------R-------------|-------------R-----------|
E|-------------------------|-------------------------|-------------------------|-------------------------|
Bass 1
G|-2--2-2-2--2-2--2-2-2-2--|-1h2-2-2-2--2-2--2-2-0-0-|-0h2-2-2-2--2-2--2-2-0-0-|-0h2-2-2-2--2-2--2-2-0-0-|
D|-------------------------|-------------------------|-------------------------|-------------------------|
A|-0~----------------------|-0~----------------------|-0~----------------------|-0~----------------------|
E|-------------------------|-------------------------|-------------------------|-------------------------|
Bass 2
G|-------------------------|-------------------------|-------------------------|-------------------------|
D|-------------------------|-------------------------|-------------------------|-------------------------|
A|-------------------------|-------------------------|-------------------------|-------------------------|
E|--5-----5-----5-----5----|-4h5---5----5-----5----3-|-3h5---5----5-----5----3-|-3h5---5----5-----5----3-|

[Verse 1]
Bass 1
G|-2--2-2-2--2-2--2-2-2-2--|-1h2-2-2-2--2-2--2-2-0-0-|-0h2-2-2-2--2-2--2-2-2-2-|-0--0-0-0--0-0--0-0-0-0--|
D|-------------------------|-------------------------|-------------------------|-------------------------|
A|-0~----------------------|-0~----------------------|-0~----------------------|-------------------------|
E|-------------------------|-------------------------|-------------------------|-------------------------|
Bass 2
G|-------------------------|-------------------------|-------------------------|-------------------------|
D|-------------------------|-------------------------|-------------------------|-------------------------|
A|-------------------------|-------------------------|-------------------------|-------------------------|
E|--5-----5-----5-----5----|-4h5---5----5-----5----3-|-3h5---5----5-----5------|--3-----3-----3-----3----|
          When I saw you     first time,                     Eyes the color of    ocean.
                  for the                                             the 
Bass 1
G|-0h2-2-2-2--2-2--2-2-2-2-|-1h2-2-2-2--2-2--2-2-0-0-|-0h2-2-2-2--2-2--2-2-2-2-|-0--0-0-0--0-0--0-0-0-0--|
D|-------------------------|-------------------------|-------------------------|-------------------------|
A|-0~----------------------|-0~----------------------|-0~----------------------|-------------------------|
E|-------------------------|-------------------------|-------------------------|-------------------------|
Bass 2
G|-------------------------|-------------------------|-------------------------|-------------------------|
D|-------------------------|-------------------------|-------------------------|-------------------------|
A|-------------------------|-------------------------|-------------------------|-------------------------|
E|--5-----5-----5-----5----|-4h5---5----5-----5----3-|-3h5---5----5-----5------|--3-----3-----3-----3----|
          Something moved    inside of me,                   long forgotten       broken          Now I 
                                                                 lying 
Bass 1
G|-------------------------|-------------------------|-------------------------|-0--0-0-0--0-0--0-0-0-0--|
D|-3--3-3-3--3-3--3-3-3-3--|-0--0-0-0--0-0--0-0-0-0--|-3--3-3-3--3-3--3-3-3-3--|-------------------------|
A|-------------------------|-------------------------|-------------------------|-------------------------|
E|-------------------------|-------------------------|-------------------------|-------------------------|
Bass 2
G|-------------------------|-------------------------|-------------------------|-------------------------|
D|-------------------------|-------------------------|-------------------------|-------------------------|
A|-------------------------|-/5-----5-----5-----5\---|-------------------------|-------------------------|
E|--1-----1-----1-----1----|-------------------------|--1-----1-----1-----1----|--3-----3-----3-----3----|
    can't   turn     a  -     way.                            Watching you as      sleeping,        Can you
                                                                      you lay
Bass 1
G|-------------------------|-------------------------|-0--0-0-0--0-0--0-0-0-0--|-2--2-2-2--2-2--2-2-2-2--|
D|-3--3-3-3--3-3--3-3-3-3--|-0--0-0-0--0-0--0-0-0-0--|-------------------------|-------------------------|
A|-------------------------|-------------------------|-------------------------|-0~----------------------|
E|-------------------------|-------------------------|-------------------------|-------------------------|
Bass 2
G|-------------------------|-------------------------|-------------------------|-------------------------|
D|-------------------------|-------------------------|-------------------------|-------------------------|
A|-------------------------|-/5-----5-----5-----5\---|-------------------------|-------------------------|
E|--1-----1-----1-----1----|-------------------------|--3-----3-----3-----3----|-/5-----5-----5-----5----|
    hear        winds of      change?                         Is this something   lieve in?
                                                                    to be - 
Bass 1
G|-1h2-2-2-2--2-2--2-2-0-0-|
D|-------------------------|
A|-0~----------------------|
E|-------------------------|
Bass 2
G|-------------------------|
D|-------------------------|
A|-------------------------|
E|-4h5-5-5-5--5-5--5-5-3-3-|

[Verse 2]
Bass 1
G|-2--2-2-2--2-2--2-2-2-2--|-1h2-2-2-2--2-2--2-2-0-0-|-0h2-2-2-2--2-2--2-2-2-2-|-0--0-0-0--0-0--0-0-0-0--|
D|-------------------------|-------------------------|-------------------------|-------------------------|
A|-0~----------------------|-0~----------------------|-0~----------------------|-------------------------|
E|-------------------------|-------------------------|-------------------------|-------------------------|
Bass 2
G|-------------------------|-------------------------|-------------------------|-------------------------|
D|-------------------------|-------------------------|-------------------------|-------------------------|
A|-------------------------|-------------------------|-------------------------|-------------------------|
E|-5--5-5-5--5-5--5-5-5-5--|-4h5-5-5-5--5-5--5-5-3-3-|-3h5-5-5-5--5-5--5-5-5-5-|-3--3-3-3--3-3--3-3-3-3--|
        I Lost direction in  darkeness,                      I couldn't stop      runinning (runnin')
                                                                 myself form
Bass 1       
G|-0h2-2-2-2--2-2--2-2-2-2-|-1h2-2-2-2--2-2--2-2-0-0-|-0h2-2-2-2--2-2--2-2-2-2-|-0--0-0-0--0-0--0-0-0-0--|
D|-------------------------|-------------------------|-------------------------|-------------------------|
A|-0~----------------------|-0~----------------------|-0~----------------------|-------------------------|
E|-------------------------|-------------------------|-------------------------|-------------------------|
Bass 2
G|-------------------------|-------------------------|-------------------------|-------------------------|
D|-------------------------|-------------------------|-------------------------|-------------------------|
A|-------------------------|-------------------------|-------------------------|-------------------------|
E|-3h5-5-5-5--5-5--5-5-5-5-|-4h5-5-5-5--5-5--5-5-3-3-|-3h5-5-5-5--5-5--5-5-5-5-|-3--3-3-3--3-3--3-3-3-3--|
          I could feel the   sun at my back,                 I was afraid to      light in          Now I
                                                                  let the
Bass 1
G|-------------------------|-------------------------|-------------------------|-0--0-0-0--0-0--0-0-0-0--|
D|-3--3-3-3--3-3--3-3-3-3--|-0--0-0-0--0-0--0-0-0-0--|-3--3-3-3--3-3--3-3-3-3--|-------------------------|
A|-------------------------|-------------------------|-------------------------|-------------------------|
E|-------------------------|-------------------------|-------------------------|-------------------------|
Bass 2
G|-------------------------|-------------------------|-------------------------|-------------------------|
D|-------------------------|-------------------------|-------------------------|-------------------------|
A|-------------------------|/5--5-5-5--5-5--5-5-5-5\-|-------------------------|-------------------------|
E|-1--1-1-1--1-1--1-1-1-1--|-------------------------|-1--1-1-1--1-1--1-1-1-1--|-3--3-3-3--3-3--3-3-3-3--|
    can't       run  any -    more.                           Now I see this      bring me,         can you
                                                                 gift you 
Bass 1 
G|-------------------------|-------------------------|-0--0-0-0--0-0--0-0-0-0--|-2--2-2-2--2-2--2-2-2-2--|
D|-3--3-3-3--3-3--3-3-3-3--|-0--0-0-0--0-0--0-0-0-0--|-------------------------|-------------------------|
A|-------------------------|-------------------------|-------------------------|-0~----------------------|
E|-------------------------|-------------------------|-------------------------|-------------------------|
Bass 2
G|-------------------------|-------------------------|-------------------------|-------------------------|
D|-------------------------|-------------------------|-------------------------|-------------------------|
A|-------------------------|/5--5-5-5--5-5--5-5-5-5\-|-------------------------|-------------------------|
E|-1--1-1-1--1-1--1-1-1-1--|-------------------------|-3--3-3-3--3-3--3-3-3-3--|/5--5-5-5--5-5--5-5-5-3--|
    hear        winds of      change?                        Maybe this loser's   turning?
                                                                    luck is 
Bass 1
G|-1h2-2-2-2--2-2--2-2-0-0-|
D|-------------------------|
A|-0~----------------------|
E|-------------------------|
Bass 2
G|-------------------------|
D|-------------------------|
A|-------------------------|
E|-4h5-5-5-5--5-5--5-5-3-3-|

[Instrumental]
Bass 1 (tacet)
Bass 2
G|-------------------------|-------------------------|-------------------------|-------------------------|
D|-------------------------|-------------------------|-0----0----0----0----0-0-|-------------------------|
A|-4----4----4----4----4-4-|/7----7----7----7----7-7-|-------------------------|-2----2----2----2----2-2-|
E|-------------------------|-------------------------|-------------------------|-------------------------|
Bass 1 (tacet)
Bass 2
G|-------------------------|-------------------------|-------------------------|-------------------------|
D|-------------------------|-------------------------|-------------------------|-------------------------|
A|-4----4----4----4----4-4-|/7----7----7----7----7-7-|-2----2----2----2----2-2-|/5----5----5----5----5-5-|
E|-------------------------|-------------------------|-------------------------|-------------------------|

Bass 1
G|-------------------------|-------------------------|-------------------------|-------------------------|
D|-7-7-7-7-7-7-7-7-7-7-7-7-|-7-7-7-7-7-7-7-7-7-7-7-7-|-7-7-7-7-7-7-7-7-7-7-7-7-|-7-7-7-7-7-7-7-7-7-7-7-7-|
A|-------------------------|-------------------------|-------------------------|-------------------------|
E|-------------------------|-------------------------|-------------------------|-------------------------|
Bass 2
G|-------------------------|-------------------------|-------------------------|-------------------------|
D|-------------------------|-------------------------|-------------------------|-------------------------|
A|--0----0----0---0-0-0-0--|--0----0----0---0-0-0-0--|--0----0----0---0-0-0-0--|--0----0----0---0-0-0-0--|
E|-------------------------|-------------------------|-------------------------|-------------------------|

[Bridge]
Bass 1
G|-------------------------|-------------------------|-------------------------|-------------------------|
D|-------------------------|-------------------------|-------------------------|-5-5-5-5-5-5-5-5-5-5-5-5-|
A|-7-7-7-7-7-7-7-7-7-7-7-7-|-9-9-9-9-9-9-9-9-9-9-9-9-|-7-7-7-7-7-7-7-7-7-7-7-7-|-------------------------|
E|-------------------------|-------------------------|-------------------------|-------------------------|
Bass 2
G|-------------------------|-------------------------|-------------------------|-------------------------|
D|-------------------------|-------------------------|-------------------------|-------------------------|
A|-------------------------|-------------------------|-------------------------|-------------------------|
E|-0~----------------------|--2-----2-----2-----2----|--0-----0-----0-----0----|--3-----3-----3-----3----|
         I will carry you     in my heart,                   I will hold you      memory.
                                                                    in my 
Bass 1
G|-2-2-2-2-2-2-2-2-2-2-2-2-|-------------------------|-2-2-2-2-2-2-2-2-2-2-2-2-|-------------------------|
D|-------------------------|-0-0-0-0-0-0-0-0-0-0-0-0-|-------------------------|-0-0-0-0-0-0-0-0-0-0-0-0-|
A|-------------------------|-------------------------|-------------------------|-------------------------|
E|-------------------------|-------------------------|-------------------------|-------------------------|
Bass 2
G|-------------------------|-------------------------|-------------------------|-------------------------|
D|-------------------------|-------------------------|-------------------------|-------------------------|
A|--0----0----0---0-0-0-0--|--5----5----5---5-5-5-5--|--0----0----0---0-0-0-0--|-5-5-5-5-5-5-5-5-5-5-5-5-|
E|-------------------------|-------------------------|-------------------------|-------------------------|
         You could be a       million miles away,            But when I call      hear
                                                                    you will
Bass 1
G|-0-0-0-0-0-0-0-0-0-0-0-0-|
D|-------------------------|
A|-------------------------|
E|-------------------------|
Bass 2
G|-------------------------|
D|-5-5-5-5-5-5-5-5-5-5-5-5-|
A|-------------------------|
E|-------------------------|
   me...

[Outro]
Bass 1 (tacet until end)
Bass 2 (Repeat 8 measures to fade)
G|-------------------------|-------------------------|-------------------------|-------------------------|
D|-------------------------|-------------------------|-0----0----0----0----0-0-|-------------------------|
A|-4----4----4----4----4-4-|/7----7----7----7----7-7-|-------------------------|-2----2----2----2----2-2-|
E|-------------------------|-------------------------|-------------------------|-------------------------|
Bass 2
G|-------------------------|-------------------------|-------------------------|-------------------------|
D|-------------------------|-------------------------|-------------------------|-------------------------|
A|-4----4----4----4----4-4-|/7----7----7----7----7-7-|-2----2----2----2----2-2-|/5----5----5----5----5-5-|
E|-------------------------|-------------------------|-------------------------|-------------------------|

*********************
| h - hammer on
| / - slide up
| \ - slide down
| ~ - vibrato
*********************

            
            
Suggest correction
Creating personal tab
Creating personal tab
You can edit any tab online and save it as your Personal.

You can edit, replace or remove any tab part or add personal notes – all changes will be seen only by you.

Personal tabs can be accessed anytime from any device, even offline.
Learn more »
Give kudos to tab author, rate the tab!
1 2 3 4 5
comments
print report bad tab
guest
You may want to rate the tab now too:
select rating
Wanna post a correction for this tab? Suggest correction