Oops, an error
Loading. Please wait.

Tear Off Your Own Head bass

25 views 1 this week
no commentswrite comment
1 2 3 4 5
2 more votes to show rating
add to favorites
×
Save as Personal and add changes to this tab that will be seen only by you. Learn more ›
×
You can save this tab as Personal to edit and correct it or add notes. All changes will be seen only by you. Learn more »
launch autoscroll
font size
0
reset
guitar tuner
edit
Autoscroll
slow
fast
+/-
esc
set tempo
stop
"Tear Off Your Own Head"
The Bangles
Tabs by: LazyDogPeachy

https://www.youtube.com/watch?v=yhnrvkptDtM
Note: This is an integrated bass tabs and lyrics. Play/sing tab/lyrics bound within measures.

Standard tune; 4/4 except for some filler at 2/4 which are marked accordingly; Key: E
Efx: Bass Overdrive (40%)

[Intro]
G|--------------------|--------------------|--------------------|--------------------|
D|--------------------|--------------------|--------------------|--------------------|
A|--------R-----------|---------R----------|---------R----------|---------R----------|
E|--------------------|--------------------|--------------------|--------------------|

G|--------------------|--------------------|--------------------|--------------------|
D|--------------------|--------------------|--------------------|--------------------|
A|--------------------|--------------5^7---|--------------------|--------------5^7---|
E|--0-0-0-0-0-0-0-0---|-0-0-0-0-5^7--------|--0-0-0-0-0-0-0-0---|-0-0-0-0-5^7--------|

[Verse 1]
G|--------------------|--------------------|--------------------|--------------------|
D|--------------------|--------------------|--------------------|--------------------|
A|-7-7-7-7-7-7-7-7----|-7-7-7-7-7-7-7-7----|-7-7-7-7-7-7-7-7----|--5--x-5.-----------|
E|--------------------|--------------------|--------------------|------------7----5--|
   Who dries your eyes  when you cry real    Who knows or cares    i mi ta   tion is. 
                                   tears            what

G|--------------------|--------------------|--------------------|--------------------|
D|--------------------|--------------------|--------------------|--------------------|
A|-7-7-7-7-7-7-7-7----|-7-7-7---------5^7--|-7-7-7-7-7-7-7-7-7--|-7-7-7-7------5^7---|
E|--------------------|--------0--5^7------|--------------------|---------5^7--------|
                               Only you      do.

G|--------------------|--------------------|--------------------|--------------------|
D|--------------------|--------------------|--------------------|--------------------|
A|-7-7-7-7-7-7-7-7----|-7-7-7-7-7-7-7-7----|-7-7-7-7-7-7-7-7----|--5----5.-----------|
E|--------------------|--------------------|--------------------|----7-------7----5--|
   You can paint his    make him wear high   Why waste time       al te ring hem  line?
           nails                    heels                               the

G|--------------------|--------------------|--------------------|--------------------|
D|--------------------|--------------------|--------------------|--------------------|
A|-7-7-7-7-7-7-7-7----|-7-7-7---------5^7--|-7-7-7-7-7-7-7-7----|-7-7-7-7------5^7---|
E|--------------------|--------0--5^7------|--------------------|---------5^7--------|
                               Or do         you?

[Chorus]                                                                     
G|--------------------|--------------------|--------------------|--------------------|
D|-/9-9-9-9-9-9-9-9---|--9-9-9-9-9-9-9-9---|--------------------|--------------------|
A|--------------------|--------------------|-7-7-7-7-7-7-7-7----|-7-7-7-7-7-7-7-7----|
E|--------------------|--------------------|--------------------|--------------------|
   Tear off your own head...                 Tear off your own head             It's a

                            (2/4)
G|--------------------|--------------------|--------------------|--------------------|
D|-7-7-7-7-7-7-7-7----|---9--9--9--9-------|--------------------|--------------------|
A|--------------------|--------------------|-7-7-7-7-7-7-7-7----|-7-7-7-7------5^7---|
E|--------------------|--------------------|--------------------|---------5^7--------|
   Doll    re  vo         lu                 tion.

G|--------------------|--------------------|
D|--------------------|--------------------|
A|-7-7-7-7-7-7-7-7----|-7-7-7-7------5^7---|
E|--------------------|---------5^7--------|

[Verse 2]
G|--------------------|--------------------|--------------------|--------------------|
D|--------------------|--------------------|--------------------|--------------------|
A|-7-7-7-7-7-7-7-7----|-7-7-7-7-7-7-7-7----|-7-7-7-7-7-7-7-7----|--5--x-5.-----------|
E|--------------------|--------------------|--------------------|------------7----5--|
   You can bat your     You can cut your     Pull out his hair     mo va ble fin  gers.
            lashes                strings          with your

G|--------------------|--------------------|--------------------|--------------------|
D|--------------------|--------------------|--------------------|--------------------|
A|-7-7-7-7-7-7-7-7----|-7-7-7---------5^7--|-7-7-7-7-7-7-7-7----|-7-7-7-7------5^7---|
E|--------------------|--------0--5^7------|--------------------|---------5^7--------|
                               It looks sur real.

G|--------------------|--------------------|--------------------|--------------------|
D|--------------------|--------------------|--------------------|--------------------|
A|-7-7-7-7-7-7-7-7----|-7-7-7-7-7-7-7-7----|-7-7-7-7-7-7-7-7----|--5----5.-----------|
E|--------------------|--------------------|--------------------|----7-------7----5--|
   But one won't do     lect the set,        in pink ribbons      in the kit che  nette.
          so col-          dress him             put him 

G|--------------------|--------------------|--------------------|--------------------|
D|--------------------|--------------------|--------------------|--------------------|
A|-7-7-7-7-7-7-7-7----|-7-7-7---------5^7--|-7-7-7-7-7-7-7-7----|-7-7-7-7------5^7---|
E|--------------------|--------0--5^7------|--------------------|---------5^7--------|
                               How does this feel?

[Chorus]
G|--------------------|--------------------|--------------------|--------------------|
D|--------------------|--------------------|--------------------|--------------------|
A|--------------------|--------------------|-7-7-7-7-7-7-7-7----|-7-7-7---------5-7--|
E|-7-7-7-7-7-7-7-7----|-7-7-7-7-7-7-7-7----|--------------------|---------0-5-7------|
   Tear off your own head...                 Tear off your own head             It's a

                            (2/4)
G|--------------------|--------------------|--------------------|--------------------|
D|--------------------|--------------------|--------------------|--------------------|
A|--------------------|--------------------|-7-7-7-7-7-7-7-7----|-7-7-7-7------5^7---|
E|-5-5-5-5-5-5-5-5----|--7--7--7--7--------|--------------------|---------5^7--------|
   Doll    re  vo        lu                  tion.

G|--------------------|--------------------|
D|--------------------|--------------------|
A|-7-7-7-7-7-7-7-7----|--/7-------7p5------|
E|--------------------|---------------7p5--|

[Refrain]
G|--------------------|--------------------|--------------------|--------------------|
D|--7-7-7-7-7-7-7-7---|--------------------|--------------------|--------------------|
A|--------------------|--7-7-7-7-7-7-7-7---|--------------------|-7-7-7-7-7-7-7--8-10|
E|--------------------|--------------------|--7-7-7-7-7-7-7-7---|--------------------|
   What's that sound     turn you around      It's a doll revolu  tion           They're
             It'll

G|--------------------|--------------------|--------------------|--------------------|
D|--7-7-7-7-7-7-7-7---|--------------5^7---|-/9-9-9-9-9-9-9-9---|--------------------|
A|--------------------|--7-7-7-7-5^7-------|--------------------|--7-7-7-7-7-7-7-7---|
E|--------------------|--------------------|--------------------|--------------------|
   taking over And      tearing it down       It's a doll revolu  tion.
           they're

G|--------------------|--------------------|--------------------|
D|--------------------|--------------------|--------------------|
A|-7-7-7-7---------5--|--7-7-7-7-7-7-7-7---|-7-7------7-7-------|
E|---------0-5^7------|--------------------|-----7-7-------5-7--|

[Verse 3]
G|--------------------|--------------------|--------------------|--------------------|
D|--------------------|--------------------|--------------------|--------------------|
A|-7-7-7-7-7-7-7-7----|-7-7-7-7-7-7-7-7----|-7-7-7-7-7-7-7-7----|--5--x-5.-----------|
E|--------------------|--------------------|--------------------|------------7----5--|
   You can pull and     cries and squeals,   twist his body 'til   fa ces    back wards.
   pinch him 'til he            You can                   it        

G|--------------------|--------------------|--------------------|--------------------|
D|--------------------|--------------------|--------------------|--------------------|
A|-7-7-7-7-7-7-7-7----|-7-7-7---------5^7--|-7-7-7-7-7-7-7-7----|-7-7-7-7------5^7---|
E|--------------------|--------0--5^7------|--------------------|---------5^7--------|
                               Plastic fea   tures.

G|--------------------|--------------------|--------------------|--------------------|
D|--------------------|--------------------|--------------------|--------------------|
A|-7-7-7-7-7-7-7-7----|-7-7-7-7-7-7-7-7----|-7-7-7-7-7-7-7-7----|--5----5.-----------|
E|--------------------|--------------------|--------------------|----7-------7----5--|
   Could make somebody  a pretty little      But don't let any    how to 
                               wife,              body   tell you       live your life.

G|--------------------|--------------------|--------------------|--------------------|
D|--------------------|--------------------|--------------------|--------------------|
A|-7-7-7-7-7-7-7-7----|-7-7-7---------5^7--|-7-7-7-7-7-7-7-7----|-7-7-7-7------5^7---|
E|--------------------|--------0--5^7------|--------------------|---------5^7--------|
                               Broken pie    ces?

[Chorus]
G|--------------------|--------------------|--------------------|--------------------|
D|--------------------|--------------------|--------------------|--------------------|
A|--------------------|--------------------|-7-7-7-7-7-7-7-7----|---7-7-7-7-7-7-7-7--|
E|-7-7-7-7-7-7-7-7----|-7-7-7-7-5-7-5-7----|--------------------|--------------------|
   Tear off your own head...                 Tear off your own head             It's a

                            (2/4)
G|--------------------|--------------------|--------------------|--------------------|
D|-7-7-7-7-7-7-7-7----|--9--9--9--9--------|--------------------|--------------------|
A|--------------------|--------------------|-7-7-7-7-7-7-7-7----|-7-7-7-7------------|
E|--------------------|--------------------|--------------------|---------5-5-7-7----|
   Doll    re  vo        lu                  tion.

G|--------------------|--------------------|--------------------|--------------------|
D|--------------------|--------------------|--------------------|--------------------|
A|--------------------|--------------------|-7-7-7-7-7-7-7-7----|---7-7-7-7-7-7-7-7--|
E|-7-7-7-7-7-7-7-7----|-7-7-7-7-5-7-5-7----|--------------------|--------------------|
   Tear off your own head...                 Tear off your own head             It's a

                            (2/4)
G|--------------------|--------------------|--------------------|--------------------|
D|-7-7-7-7-7-7-7-7----|--9--9--9--9--------|--------------------|--------------------|
A|--------------------|--------------------|---------R----------|----------R---------|
E|--------------------|--------------------|--------------------|--------------------|
   Doll    re  vo        lu                  tion.

G|--------------------|--------------------|
D|--------------------|--------------------|
A|--------R-----------|-----r-----7p5------|
E|--------------------|---------------7p5--|

[Refrain]
G|--------------------|--------------------|--------------------|--------------------|
D|-/7-7-7-7-7-7-7-7---|--------------------|--------------------|--------------------|
A|--------------------|--7-7-7-7-7-7-7-7---|--------------------|-7-7-7-7-7-7-7--5-7-|
E|--------------------|--------------------|--7-7-7-7-7-7-7-7---|--------------------|
   What's that sound     turn you around      It's a doll revolu  tion           They're
             It'll

G|--------------------|--------------------|--------------------|--------------------|
D|--7-7-7-7-7-7-7-7---|--------------------|-/9-9-9-9-9-9-9-9---|--------------------|
A|--------------------|--7-7-7-7-\7--------|--------------------|--7-7-7-7-7-7-7-7---|
E|--------------------|-----------------0--|--------------------|--------------------|
   taking over And      tearing it down       It's a doll revolu  tion           It's a
           they're

G|--------------------|--------------------|--------------------|--------------------|
D|--------------------|--------------------|--------------------|--------------------|
A|--------------------|-----14-14-14-14-14\|--7-7-7-7-7-7-7-7---|-7-7-7-7------5^7---|
E|--7-7-7-7-7-7-7-7---|-/7-----------------|--------------------|---------5^7--------|
    Doll re   vo            lu                tion.

[Outro]
G|--------------------|--------------------|--------------------|--------------------|
D|--------------------|--------------------|--------------------|--------------------|
A|--7-7-7-7-7-7-7-7---|--7-7-7-7--7p5------|--------------------|--------------------|
E|--------------------|---------------7p5--|--0-0-0-0-0-0-0-0---|--0-0-0-0-0-0-0-0---|
                                  Revolu      tion                         (Revolu

G|--------------------|--------------------|--------------------|--------------------|
D|--------------------|--------------------|--------------------|--------------------|
A|--------------------|--------------5^7---|-/7-7-7-7-7-7-7-7---|--7-7-7-7-7-7-7-7---|
E|--0-0-0-0-0-0-0-0---|-0-0-0-0-5^7--------|--------------------|--------------------|
    tion)               Tear off your        own head                      (Revolu

G|--------------------|--------------------|--------------------|--------------------|
D|--------------------|--------------------|--------------------|--------------------|
A|--7-7-7-7-7-7-7-7---|--7-7-5-------------|-/7-7-7-7-7-7-7-7---|--7-7-7-7-7-7-7-7---|
E|--------------------|---------7-5-3-2-0--|--------------------|--------------------|
    tion).....                                (to fade)

G|--------------------|--------------------|--------------------|--------------------|
D|--------------------|--------------------|--------------------|--------------------|
A|--7-7-7-7-7-7-7-7---|--7-7-5---5---------|--7-7-7-7-7-7-7-7---|--7-7-7-7-7-7-7-7---|
E|--------------------|--------7---7--5-7--|--------------------|--------------------|
                                                                   
G|--------------------|--------------------|--------------------|--------------------|
D|--------------------|--------------------|--------------------|--------------------|
A|-7-7-7-7-7-7-7-7----|-7-7-7-7-7-7-7-7----|-7-7-7-7-7-7-7-7----|--7-7-7-7-7-7-7-7---|
E|--------------------|--------------------|--------------------|--------------------|



********************************

|  R  - Whole rest
|  r  - half rest
|  /  - slide up
|  \  - slide down
|  ^  - hammer on
|  p  - pull off
|  .  - stacatto
|  x  - dead note

********************************

            
            
Suggest correction
Creating personal tab
Creating personal tab
You can edit any tab online and save it as your Personal.

You can edit, replace or remove any tab part or add personal notes – all changes will be seen only by you.

Personal tabs can be accessed anytime from any device, even offline.
Learn more »
Give kudos to tab author, rate the tab!
1 2 3 4 5
comments
print report bad tab
guest
You may want to rate the tab now too:
select rating
Wanna post a correction for this tab? Suggest correction