Oops, an error
Loading. Please wait.

Tell Me bass

34 views 1 this week
no commentswrite comment
1 2 3 4 5
1 last vote to show rating
add to favorites
×
Save as Personal and add changes to this tab that will be seen only by you. Learn more ›
×
You can save this tab as Personal to edit and correct it or add notes. All changes will be seen only by you. Learn more »
launch autoscroll
font size
0
reset
guitar tuner
edit
Autoscroll
slow
fast
+/-
esc
set tempo
stop
"Tell Me"
The Bangles
Tab by: LazyDogPeachy

https://www.youtube.com/watch?v=cuEtnFdp0Y0

Note: Finger picked
Approx 240 bpm; 2/4

[Intro]
G|------------------|--------------------|------------------|--------------------|
D|------------------|--------------------|------------------|--------------------|
A|----5~------------|--------------------|----3~------------|--------------------|
E|------------------|--------------------|------------------|--------------------|

G|------------------|--------------------|------------------|--------------------|
D|------4----5---7--|------2----3--------|------4----5---7--|------2-----3--2----|
A|--5---------------|--3------------3----|--5---------------|--3--------------3--|
E|------------------|--------------------|------------------|--------------------| 

G|------------------|--------------------|------------------|--------------------|
D|------4----5---7--|------2----3--------|------4----5---7--|--------------------|
A|--5---------------|--3------------3----|--5---------------|-/3----3-3-----3-3--|
E|------------------|--------------------|------------------|--------------------|

[Verse 1]
G|------------------|--------------------|------------------|--------------------|
D|------4----5---7--|------2----3--------|------4----5---7--|------2-----3--2----|
A|--5---------------|--3------------3----|--5---------------|--3--------------3--|
E|------------------|--------------------|------------------|--------------------|
    Give away the      things you love,

G|------------------|--------------------|------------------|--------------------|
D|------4----5---7--|------2----3--------|------4----5---7--|--------------------|
A|--5---------------|--3------------3----|--5---------------|--3----2-----0------|
E|------------------|--------------------|------------------|-----------------2--|
    Now you want me    to forgive you,

G|------------------|--------------------|------------------|--------------------|
D|------------------|--------------------|-----------4------|--------------------|
A|------3---5-----5-|------5----7-----7--|---2--2---------2-|--/5--4----2---0----|
E|---3--------------|---5----------------|------------------|--------------------|
     Surprise     sur   prise,           I'm moving           on, yeah

G|------------------|--------------------|------------------|--------------------|
D|------------------|--------------------|------------------|--------------------|
A|------3---5---5---|------5----7----7---|-5--5-5------0----|-5--5-5-------0-----|
E|---3--------------|---5----------------|------------------|--------------------|
     I ,                I'm moving         on.           
G|------------------|--------------------|
D|------------------|--------------------|
A|-5--5-5------0----|-5--5-5-------0-----|
E|------------------|--------------------|

[Verse 2]
G|------------------|--------------------|------------------|--------------------|
D|------4----5---7--|------2----3--------|------4----5---7--|------2-----3--2----|
A|--5---------------|--3------------3----|--5---------------|--3--------------3--|
E|------------------|--------------------|------------------|--------------------|
    What a shock it    is to see,

G|------------------|--------------------|------------------|--------------------|
D|------4----5---7--|------2----3--------|------4----5---7--|--------------------|
A|--5---------------|--3------------3----|--5---------------|--3----2-----0------|
E|------------------|--------------------|------------------|-----------------2--|
    I can walk     a - way so easily, 

G|------------------|--------------------|------------------|--------------------|
D|------------------|--------------------|-----------4------|--------------------|
A|------3---5-----5-|------5----7-----7--|---2--2---------2-|--/5--4----2---0----|
E|---3--------------|---5----------------|------------------|--------------------|
     Isn't it           funny    how         hard it's turned  a-round this time

G|------------------|--------------------|------------------|--------------------|
D|------------------|--------------------|------------------|--------------------|
A|------3---5---5---|------5----7----7---|----5------5---5-5|----5------5---5-5--|
E|---3--------------|---5----------------|------------------|--------------------|
     I'                 m  moving          on.

[Chorus]
G|------------------|--------------------|------------------|--------------------|
D|------------------|--------------------|------------------|--------------------|
A|------------4.----|-----7------7-7--7.-|-------------2.---|--/5-------5-5--5.--|
E|---5.-------------|--------------------|----3.------------|--------------------|
     Tell me            tell me               while I still    time,
                                              have the 
G|------------------|--------------------|------------------|--------------------|
D|------------------|--------------------|------------------|--------------------|
A|------------4.----|----/7------7-7--7\-|------------------|--------------------|
E|---5.-------------|--------------------|------3~----------|--------------------|
     Are you  going to   find  a love that's    tru er than        .

G|------------------|--------------------|------------------|--------------------|
D|------------------|--------------------|------------------|--------------------|
A|------------------|--------------------|------------------|--------------------|
E|---0~-------------|--------------------|----3~------------|--------------------|
     mine...

G|------------------|--------------------|
D|------------------|--------------------|
A|------------------|--------------------|
E|---5~-------------|--------------------|

[Bass Solo]
G|------------------|-------------------|-------------------|-------------------|
D|-----4----5----7\-|-----2-3----2------|-----4-5---6---/7--|-7-----6----5---4--|
A|-5----------------|-3--------------3--|-5-----------------|-------------------|
E|------------------|-------------------|-------------------|-------------------|

G|------------------|-------------------|-------------------|-------------------|
D|-----4----5----7\-|------2-----3------|-5--3------3----5--|-5----3----/3~-----|
A|-5----------------|-3--------------3--|-------5-----------|----------------3--|
E|------------------|-------------------|-------------------|-------------------|

G|------------------|--------------------|------------------|-------------------|
D|------------------|--------------------|-----------4------|-------------------|
A|-----3----5----5--|------5----7-----7--|---2--2---------2-|--/5--5-4--4-2-----|
E|---3--------------|---5----------------|------------------|-------------------|

G|------------------|--------------------|------------------|-------------------|
D|------------------|--------------------|------------------|-------------------|
A|----------5----5--|-----------7-----7--|----5~------------|-------------------|
E|---3--------------|---5----------------|------------------|-------------------|

G|------------------|--------------------|
D|------------------|--------------------|
A|---3~-------------|--------------------|
E|------------------|--------------------|

[Verse 3]
G|------------------|--------------------|------------------|--------------------|
D|------4----5---7--|------2----3--------|------4----5---7--|------2-----3--2----|
A|--5---------------|--3------------3----|--5---------------|--3--------------3--|
E|------------------|--------------------|------------------|--------------------|
    One   two  three   abandon    me...

G|------------------|--------------------|------------------|--------------------|
D|------4----5---7--|------2----3--------|------4----5---7--|--------------------|
A|--5---------------|--3------------3----|--5---------------|--3----2-----0------|
E|------------------|--------------------|------------------|-----------------2--|
    Ain't gonna turn   back again...
               your
G|------------------|--------------------|------------------|--------------------|
D|------------------|--------------------|-----------4------|--------------------|
A|------3---5-----5-|------5----7-----7--|---2--2---------2-|--/5--4----2---0----|
E|---3--------------|---5----------------|------------------|--------------------|
     Well too           bad baby             this time you     lose

G|------------------|--------------------|------------------|--------------------|
D|------------------|--------------------|------------------|--------------------|
A|------3---5---5---|------5----7----7---|-5--5-5------0----|-5--5-5-------0-----|
E|---3--------------|---5----------------|------------------|--------------------|
     I ,                I'm moving         on.           
G|------------------|--------------------|
D|------------------|--------------------|
A|-5--5-5------0----|-5--5-5-------r-----|
E|------------------|--------------------|

[Chorus]
G|------------------|--------------------|------------------|--------------------|
D|------------------|--------------------|------------------|--------------------|
A|------------4.----|-----7------7-7--7.-|-------------2.---|--/5-------5-5--5.--|
E|---5.-------------|--------------------|----3.------------|--------------------|
     Tell me            tell me               while I still    time,
                                              have the 
G|------------------|--------------------|------------------|--------------------|
D|------------------|--------------------|------------------|--------------------|
A|------------4.----|----/7------7-7--7\-|------------------|--------------------|
E|---5.-------------|--------------------|------3~----------|--------------------|
     Are you  going to   find  a love that's    tru er than        .

G|------------------|--------------------|------------------|--------------------|
D|------------------|--------------------|------------------|--------------------|
A|------------------|--------------------|------------------|--------------------|
E|---0~-------------|--------------------|--------------0---|----3----------5----|
     mine...

[Outro]
G|------------------|-------------------|-------------------|-------------------|
D|-----4----5----7\-|-----2-3----2------|-----4-5---6---/7--|-7----6----5----4--|
A|-5----------------|-3--------------3--|-5-----------------|-------------------|
E|------------------|-------------------|-------------------|-------------------|
   One   two  three   abandon    me...

G|------------------|-------------------|--7---5------------|-------------------|
D|-----4----5----7\-|------------3------|-----------7-----7-|6----6-5----4------|
A|-5----------------|-3----3---------3--|-------------------|-----------------5-|
E|------------------|-------------------|-------------------|-------------------|
   Ain't gonna turn   back again...
               your
G|------------------|--------------------|------------------|-------------------|
D|------------------|--------------------|-----------4------|-------------------|
A|-----3----5----5--|------5----7-----7--|---2--2---------2-|--/5--4----2---0---|
E|---3--------------|---5----------------|------------------|-------------------|
     Well too           bad baby             this time you     lose
G|------------------|--------------------|------------------|-------------------|
D|------------------|--------------------|------------------|-------------------|
A|-----3----5----5--|------5----7-----7--|----2~------------|----2~-------------|
E|---3--------------|---5----------------|------------------|-------------------|
     Cuz        I'      m   moving            on,
G|------------------|--------------------|------------------|-------------------|
D|------------------|--------------------|------------------|-------------------|
A|-----3----5----5--|------5----7-----7--|----5------5---5-5|----5------5----5-5|
E|---3--------------|---5----------------|------------------|-------------------|
     Yeah       I'      m   moving           on.

G|------------------|-------------------|-------------------|-------------------|
D|------------------|-------------------|-------------------|-------------------|
A|---3------3----3-3|----3------3----3-3|----5.--------3.---|----5.--------3.---|
E|------------------|-------------------|-------------------|-------------------|

G|------------------|-------------------|-------------------|-------------------||
D|------------------|-------------------|-------------------|-------------------||
A|---5~-------------|-------------------|-------------------|-------------------||
E|------------------|-------------------|-------------------|-------------------||

*****************************
| /   - slide up
| \   - slide down
| r   - quarter rest
| .   - staccato
| ~   - vibrato
*****************************

            
            
Suggest correction
Creating personal tab
Creating personal tab
You can edit any tab online and save it as your Personal.

You can edit, replace or remove any tab part or add personal notes – all changes will be seen only by you.

Personal tabs can be accessed anytime from any device, even offline.
Learn more »
Give kudos to tab author, rate the tab!
1 2 3 4 5
comments
print report bad tab
guest
You may want to rate the tab now too:
select rating
Wanna post a correction for this tab? Suggest correction