Oops, an error
Loading. Please wait.

Walking Down Your Street bass

version 2
version 2

Whole song

19 views 1 this week
no commentswrite comment
1 2 3 4 5
x 3
add to favorites
×
Save as Personal and add changes to this tab that will be seen only by you. Learn more ›
×
You can save this tab as Personal to edit and correct it or add notes. All changes will be seen only by you. Learn more »
launch autoscroll
font size
0
reset
guitar tuner
edit
Autoscroll
slow
fast
+/-
esc
set tempo
stop
Walking Down Your Street
The Bangles
Tabs by: LazyDogPeachy

https://www.youtube.com/watch?v=fqli17ImPLw
Standard tune; 4/4

[Intro]
G|---------------------|---------------------|---------------------|---------------------|
D|---------------------|---------------------|---------------------|---------------------|
A|-3----1-3---1---1h3--|-3----1h3---1---1h3--|-3----1h3---1---1h3--|-3----1h3---1---1-3--|
E|----3---------3------|----3---------3------|----3---------3------|----3---------3------| 2x

[Verse 1] (this is the BASIC version for the bass lines on verses)
G|---------------------|---------------------|---------------------|---------------------|
D|---------------------|---------------------|---------------------|---------------------|
A|--5pX------3-----3-5-|----------3-3---5----|--3pX------1-----1-3-|----------1-1---3----|
E|-------5-5----5------|--5-5-5-----------5--|-------3-3----3------|--3-3-3-----------3--|
    Ooh,                  well I've had        sleepless nights

G|---------------------|---------------------|---------------------|---------------------|
D|---------------------|---------------------|---------------------|---------------------|
A|--5pX------3-----3-5-|----------3-3---5----|--3pX------1-----1-3-|----------1-1---3----|
E|-------5-5----5------|--5-5-5-----------5--|-------3-3----3------|--3-3-3-----------3--|
    Toss and turn,       wake up burning        for what you ins   -  pire.

[Chorus]
G|---------------------|---------------------|---------------------|---------------------|
D|---------------------|---------------------|---------------------|---------------------|
A|-3.---3~-------3-----|-----------0-1-------|-3.---3~-------3-----|-----------0-1-------|
E|---------3pX----3pX--|--3---3-4------------|---------3pX----3pX--|--3---3-4------------|
   walk right down your   street,     With a   love that I can't      hide.        I've got 

G|---------------------|---------------------|---------------------|---------------------|
D|---------------------|---------------------|---------------------|---------------------|
A|-3.---3~------3------|-----------0-1-------|---------------------|---------------------|
E|-----------3---3pX---|--3---3-4------------|---1.--1~------------|--4-4-4--4-4-4---r---|
   one thing  on my       mind,      I'm gonna   sacrifice my          pride,  Coz I want

[Interlude]
G|---------------------|---------------------|---------------------|---------------------|
D|---------------------|---------------------|---------------------|---------------------|
A|-3----1-3---1---1h3--|-3----1h3---1---1h3--|-3----1h3---1---1h3--|-3----1h3---1---1-3--|
E|----3---------3------|----3---------3------|----3---------3------|----3---------3------|
   you....

[Verse 2]
G|---------------------|---------------------|---------------------|---------------------|
D|---------------------|---------------------|---------------------|---------------------|
A|--5pX------3-----3-5-|----------3-3---5----|--3pX------1-----1-3-|----------1-1---3----|
E|-------5-5----5------|--5-5-5-----------5--|-------3-3----3------|--3-3-3-----------3--|
    Ooh,                   well how I           wish you would be     mine, my

G|---------------------|---------------------|---------------------|---------------------|
D|---------------------|---------------------|---------------------|---------------------|
A|--5pX------3-----3-5-|----------3-3---5----|--3pX------1-----1-3-|----------1-1---3----|
E|-------5-5----5------|--5-5-5-----------5--|-------3-3----3------|--3-3-3-----------3--|
   pulse is weak, I'm    blushing brighter     than a valen        -  tine.        Coz I can

[Chorus]
G|---------------------|---------------------|---------------------|---------------------|
D|---------------------|---------------------|---------------------|---------------------|
A|-3.---3~-------3-----|-----------0-1-------|-3.---3~-------3-----|-----------0-1-------|
E|---------3pX----3pX--|--3---3-4------------|---------3pX----3pX--|--3---3-4------------|
   walk right down your   street,     With a   love that I can't      hide.        I've got 

G|---------------------|---------------------|---------------------|---------------------|
D|---------------------|---------------------|---------------------|---------------------|
A|-3.---3~------3------|-----------0-1-------|---------------------|---------------------|
E|-----------3---3pX---|--3---3-4------------|---1.--1~------------|--4-4-4---4-4-4---r--|
   one thing  on my       mind,      I'm gonna   sacrifice my          pride,  Coz 

[Bridge]
G|---------------------|---------------------|---------------------|---------------------|
D|-3.-3------3.-3------|-3.-3------3.-3------|---------------------|---------------------|
A|---------------------|---------------------|-0.-0------0.-0------|-0.-0------0.-0------|
E|---------------------|---------------------|---------------------|---------------------|
   I can't   stop                  the         way        I          feel,     so
G|---------------------|---------------------|---------------------|---------------------|
D|---------------------|---------------------|-----5----5~---------|--5-5-5-5-5-5-5-5----|
A|-----5~---5-5--------|----5~---5-5----3h5--|---------------------|---------------------|
E|---------------------|---------------------|---------------------|---------------------|
       I    keep            walk   -   ing             down            oh,            Cuz I want

[Solo]  
G|---------------------|---------------------|---------------------|---------------------|
D|---------------------|---------------------|---------------------|---------------------|
A|-3.---3~-------3-----|-----------0-1-------|-3.---3~-------3-----|-----------0-1-------|
E|---------3pX----3pX--|--3---3-4------------|---------3pX----3pX--|--3---3-4------------| 2x

G|---------------------|---------------------|---------------------|---------------------|
D|---------------------|---------------------|---------------------|---------------------|
A|-3----1-3---1---1h3--|-3----1h3---1---1h3--|-3----1h3---1---1h3--|-3----1h3---1---1-3--|
E|----3---------3------|----3---------3------|----3---------3------|----3---------3------|

[Interlude 2]
G|---------------------|---------------------|---------------------|---------------------|
D|---------------------|---------------------|---------------------|---------------------|
A|-3----1-3---1---1h3--|-3----1h3---1---1h3--|-3----1h3---1---1h3--|-3----1h3---1---1-3--|
E|----3---------3------|----3---------3------|----3---------3------|----3---------3------| 3x
    Walking                                      down your street...

[Bridge Reprise]
G|---------------------|---------------------|---------------------|---------------------|
D|-3.-3------3.-3------|-3.-3------3.-3------|---------------------|---------------------|
A|---------------------|---------------------|-0.-0------0.-0------|-0.-0------0.-0------|
E|---------------------|---------------------|---------------------|---------------------|
   I can't   stop                  the         way        I          feel,     so
G|---------------------|---------------------|---------------------|---------------------|
D|---------------------|---------------------|-----5----5~---------|--5-5-5-5-5-5-5-5----|
A|-----5~---5-5--------|----5~---3-5----3h5--|---------------------|---------------------|
E|---------------------|---------------------|---------------------|---------------------|
   I       keep          walk    -   ing             down            oh,            Cuz I want

[Chorus] 
G|---------------------|---------------------|---------------------|---------------------|
D|---------------------|---------------------|---------------------|---------------------|
A|-3.---3~-------3-----|-----------0-1-------|-3.---3~-------3-----|-----------0-1-------|
E|---------3pX----3pX--|--3---3-4------------|---------3pX----3pX--|--3---3-4------------|
   walk right down your   street,     With a   love that I can't      hide.        I've got 

G|---------------------|---------------------|---------------------|---------------------|
D|---------------------|---------------------|---------------------|---------------------|
A|-3.---3~------3------|-----------0-1-------|---------------------|---------------------|
E|-----------3---3pX---|--3---3-4------------|---1.--1~------------|--4-4-4--4-4-4---r---|
   one thing  on my       mind,      I'm gonna   sacrifice my          pride,      (how'bout you)

G|---------------------|---------------------|---------------------|---------------------|
D|---------------------|---------------------|---------------------|---------------------|
A|-3.---3~-------3-----|-----------0-1-------|-3.---3~-------3-----|-----------0-1-------|
E|---------3pX----3pX--|--3---3-4------------|---------3pX----3pX--|--3---3-4------------|
   walk right down your   street,     With a   love that I can't      hide.        I've got 

G|---------------------|---------------------|---------------------|---------------------|
D|---------------------|---------------------|---------------------|---------------------|
A|-3.---3~------3------|-----------0-1-------|---------------------|---------------------|
E|-----------3---3pX---|--3---3-4------------|---1.--1~------------|--4-4-4--4-4-4---r---|
   one thing  on my       mind,      I'm gonna   sacrifice my          pride,      (how'bout you)

***********************
| X - muted/dead note
| h - hammer on
| p - pull off
| . - staccato
| ~ - vibrato
| r - quarter rest
***********************

            
            
Suggest correction
Creating personal tab
Creating personal tab
You can edit any tab online and save it as your Personal.

You can edit, replace or remove any tab part or add personal notes – all changes will be seen only by you.

Personal tabs can be accessed anytime from any device, even offline.
Learn more »
Give kudos to tab author, rate the tab!
1 2 3 4 5
comments
print report bad tab
guest
You may want to rate the tab now too:
select rating
Wanna post a correction for this tab? Suggest correction